Coal Chamber - Loco Chords & Tabs

 

Loco Chords & Tabs

Coal Chamber Chords & Tabs

Version: 1 Type: Bass Tab 0 ratings
1 star 2 stars 3 stars 4 stars 5 stars
comments

Loco Bass Tab

   
COAL CHAMBER - LOCO
 
Played by: Rayna Foss
Tabbed by: Jason Potter, jmp323@hazleton.net
 
Tuning
(B, E, A, D)
[ Tab from: http://www.guitartabs.cc/tabs/c/coal_chamber/loco_btab.html ]
 
D|-------|
A|-------|
E|-------|
B|--3-0--|
 \-PRE INTRO-/
 
D|-----------|
A|-----------|
E|-----------|
B|--3-0---0--|
 \---INTRO---/
 
D|-----------------|
A|-----------------| RUN 1
E|--0-2------------|
B|------3-2-0-2-0--|
 \---RUN B4 VERSE--/
 
D|-----------------------------------|
A|-----------------------------------|
E|------------------------------3-2--|
B|--0-2-0-2-0-2-3-2-0-2-0-2-0-2------|   
 \------VERSE------------------------/
 
D|------------|
A|------------|
E|------------|
B|--2-2--0-0--|
 \--CHORUS 1--/
 
D|------------||-----|
A|------------||-----|
E|------------||-----|
B|--1-1--0-0--||--0--|
 \--CHORUS 2--/\-PLAY LAST TIME ONLY-/
 
D|-----------------|
A|-----------------| RUN 2
E|-----------------|
B|--2-3-2-0-2-3-2--|
 \-RUN AFTER CHORUS/
 
D|----------|
A|----------| RUN 3
E|----------|
B|--0--0-1--|
 
SONG PATTERN:
PRE INTRO 1X
INTRO     7X
RUN1      1X
VERSE     ?X--JUST PLAY UNTIL DEZ SAYS "DONT F**K WITH ME"
CHORUS1   4X
CHORUS2   4X
VERSE     ?X
CHORUS1   4X
CHORUS2   4X
RUN2      4X
RUN3      7X
PRE INTRO 1X
INTRO     3X
RUN1      1X
VERSE     ?X
CHORUS1   4X
CHORUS2   4X
RUN2      1X
 
 
 
 





Comments