Coal Chamber - I Chords & Tabs

 

I Chords & Tabs

Coal Chamber Chords & Tabs

Version: 2 Type: Tab 0 ratings
1 star 2 stars 3 stars 4 stars 5 stars
comments

I Tab

   
I by Coal Chamber
Guitarist: Meegs
Album: Coal Chamber
Dif.: 7
Tabbed by TWIGGy5

NOTE: Tune down to Drop A (A E A D G B)

Intro/Chorus
E|-2-----3--5--------3--1--3--|-%-|-%-|-%-|
A|-2---0-3--5-----0--3--1--3--|-%-|-%-|-%-|

Intro P2
E|-2-----3--5--------3--1--3--|-%-|-2--0-3-1--1-1-|
A|-2---0-3--5-----0--3--1--3--|-%-|-2--0-3-1--1-1-|
                                          PM-----|

Verse
A|-2---0-3--5-----0-3--1---3---| LOW A
  PM-------------------------|

Fill 1 (2nd “Should I…”)
E|-2-----3--5--------3--1--3--|-%-|-%-|--2---0-3--5----0--3--1-|
A|-2---0-3--5-----0--3--1--3--|-%-|-%-|--2---0-3--5----0--3--1-|

Interlude
A|-3-2-1-3-2---3-2---3-2-1-3-2-1-|-%-|-%-| LOW A
  PM-----------------------------|

Fill 2 (Gtr. 1)
E|-----------------------------1--|
A|-3-2--1-3-2--3-2--3-2-1-3-2--1--|

Fill 2/outro (Gtr. 2)
B|-----------------------------1--|
G|--------------------------------|
D|-----------------------------3--|
A|-----------------------------1--|
E|-----------------------------1--|
A|-----------------------------1--|

Interlude 2/Outro (Gtr. 1)
E|-3-2--1-3-2--3-2--3-2-1-3-2--1--|
A|-3-2--1-3-2--3-2--3-2-1-3-2--1--|

Bridge (Gtr. 1) (w/ dist. + delay)
B|--------0-13----------------------|
G|-11-------------------------------|

Bridge (Gtr. 1) (w/ dist. + delay) (cont.)
B|-13--------0-----------------------| 10x
G|-----11----------------------------|

Song Structure: -
Bass
Pik Scrape And Other Random Shit
Bass
Intro
Intro P2
Intro
Intro P2
Verse (“Let down break…..”)
Chorus (“Should I?…”)
Verse (“Outcast from…”)
Chorus
Fill 1
Fill 2 (Gtr. 1)/Fill 2 (Gtr. 2)
Interlude (Gtr. 2)/Fill 2 (Gtr. 2)
Bass
Bridge (“It’s up to me……”)
Interlude 2 (Gtr. 1)/Fill 2 (Gtr. 2)
Outro (Gtr. 1)/Outro (Gtr. 2) 9x
Delay Effects

Alright there you go. Nothing much to say about this one I’m tired. If ya got 
any comments, corrections or suggestions or requests email me at toxic345x@yahoo.ca
===========   BAND: coal chamber
   CD: coal chamber
   TABBER: ChAAPY
   SONG: "I"
   TUNING: (A,E,A,D,G,B)
   KEY: P.M.=Palm Mute
           %=Rest
  
 

   *The begining is a bunch of pick scrapes and weird fbck.*
[ Tab from: http://www.guitartabs.cc/tabs/c/coal_chamber/i_tab_ver_2.html ]
                        
   Intro/Chorus:
                             4x                   P.M...... 1x
  B|---------------------------|     B|-----------------------|
  G|---------------------------|     G|-----------------------|
  D|---------------------------|     D|-----------------------|
  A|---------------------------|     A|-----------------------|
  E|-2---0--3--5----0-3--1--3--|     E|-2---0--3--1----1--1-%-|
  A|-2---0--3--5----0-3--1--3--|     A|-2---0--3--1----1--1---|


   Verse 1 & 2:

     P.M.................................................4x
  B|---------------------------|---------------------------|
  G|---------------------------|---------------------------|
  D|---------------------------|---------------------------|
  A|---------------------------|---------------------------|
  E|---------------------------|---------------------------| 
  A|--2---0-3--5----0-3--1--3--|--2---0-3--5----0-3--1--3--|  


   Interlude:

    P.M.............................3x        P.M...........................
  B|-----------------|----------------|     B|-----------------|-------------1-|
  G|-----------------|----------------|     G|-----------------|---------------|
  D|-----------------|----------------|     E|-----------------|---------------|
  A|-----------------|----------------|     A|-----------%-----|-%-------------|
  E|-----------%-----|-%--------------|     E|-----------------|---------------|
  A|-3-2-1-3-2---3-2-|---3-2-1-3-2-1--|     A|-3-2-1-3-2---3-2-|---3-2-1-3-2---|


   Interlude/Outro Chorus:

    P.M...............................   4x
  B|--------------------|---------------1--|
  G|--------------------|------------------|
  D|--------------------|------------------|
  A|------------%-------|-%----------------| 
  E|-3-2-1-3-2-----3-2--|----3-2-1-3-2-----|
  A|-3-2-1-3-2-----3-2--|----3-2-1-3-2-----|


   Bridge: (set your delay pedal to 341 millisec.)

     P.M............(delay repeats)....... P.M...........(delay repeats)........
  B|---------0--13--------|-------------|--13----------0--------|---------------|
  G|---11-----------------|-------------|------11---------------|---------------|
  D|----------------------|-------------|-----------------------|---------------|
  A|----------------------|-------------|-----------------------|---------------|
  E|----------------------|-------------|-----------------------|---------------|
  A|----------------------|-------------|-----------------------|---------------|


      Repeat that then go to the Outro Chorus
Comments