Coal Chamber - Fiend Chords & Tabs

 

Fiend Chords & Tabs

Coal Chamber Chords & Tabs

Version: 2 Type: Tab 0 ratings
1 star 2 stars 3 stars 4 stars 5 stars
comments

Fiend Tab

Fiend by Coal Chamber 

Dropped D tuning (DADGBe) low to high

Intro/ Chorus
|-----------------------------------------|  
|-----------------------------------------|  
|-----------------------------------------|  
|--3-0-0--3-0-0--3-0-3-0-0--3-0-0--6-6----|  
|--3-0-0--3-0-0--3-0-3-0-0--3-0-0--6-6----|  
|--3-0-0--3-0-0--3-0-3-0-0--3-0-0--6-6----|  

|-----------------------------------|  
|-----------------------------------|  
|-----------------------------------|  
|--3-0-0--3-0-0--3-0-3-0-0--3-6-6---|  
|--3-0-0--3-0-0--3-0-3-0-0--3-6-6---|  
|--3-0-0--3-0-0--3-0-3-0-0--3-6-6---|  

|-----------------------------------------|  
|-----------------------------------------|  
|-----------------------------------------|  
|--3-0-0--3-0-0--3-0-3-0-0--3-0-0--6-5----|  
|--3-0-0--3-0-0--3-0-3-0-0--3-0-0--6-5----|  
|--3-0-0--3-0-0--3-0-3-0-0--3-0-0--6-5----|  
[ Tab from: http://www.guitartabs.cc/tabs/c/coal_chamber/fiend_tab_ver_2.html ]
|-----------------------------------------|  
|-----------------------------------------|  
|-----------------------------------------|  
|--3-0-0--3-0-0--3-0-3-0-0--3-0-0--6-6----|  
|--3-0-0--3-0-0--3-0-3-0-0--3-0-0--6-6----|  
|--3-0-0--3-0-0--3-0-3-0-0--3-0-0--6-6----|  

Verse
|----------------------------------|  
|----------------------------------|  
|----------------------------------|  
|--3-0-0--3-0-0--3-0-3-0-0--3-0-0--|  
|--3-0-0--3-0-0--3-0-3-0-0--3-0-0--|  
|--3-0-0--3-0-0--3-0-3-0-0--3-0-0--| 
  play as many timesas needed

Chorus look up^

Verse


Bridge 1 (Still reasoning…my life…)
|-------------------------| 
|-------------------------| 
|-------------------------| 
|-------------------------| 
|-------------------------| 
|--6-3-3--6-3-3--6-3-3----| 
 PM. . . . . . . . .. 

Chorus

Bridge 2
|-------------------------| 
|-------------------------| 
|-------------------------| 
|-------------------------| 
|-------------------------| 
|--6-5-5--6-5-5--6-5-5----| 

The Do or Die part…
|-------------------------| 
|-------------------------| 
|-------------------------| 
|-------------------------| 
|-------------------------| 
|--1~~~~~~~-0~~~~~~~~~----| 

Bridge 2

Chorus

That’s pretty much it

Tabbed by Michael Bottari  
Questions comments? Send to Diablo15000@aol.com

Comments