Coal Chamber - Fiend Chords & Tabs

 

Fiend Chords & Tabs

Coal Chamber Chords & Tabs

Version: 1 Type: Tab 0 ratings
1 star 2 stars 3 stars 4 stars 5 stars
comments

Fiend Tab

#----------------------------------PLEASE NOTE--------------------------------#
#This file is the author's own work and represents their interpretation of the#
#song. You may only use this file for private study, scholarship, or research.#
#-----------------------------------------------------------------------------#
#-- File created with Instab - http://www.pconline.com/~smcarey/instab.html --#
#-----------------------------------------------------------------------------#

Author/Artist: Coal Chamber
Title: Fiend
Album: Dark Days
Transcribed by: David Ferguson
Email: productofneglect@hotmail.com

Tuning: AEADGB

------------------------------------------------------------------------------
------------------------------------------------------------------------------
------------------------------------------------------------------------------
------------------------------------------------------------------------------
-5-2-2-5-2-2-5-2-2-5-2-5-2-5-2-2-5-2-2-5-2-2-8-7---5-2-2-5-2-5-2-2-2-5-2-5-2--
-5-2-2-5-2-2-5-2-2-5-2-5-2-5-2-2-5-2-2-5-2-2-8-7---5-2-2-5-2-2-5-2-2-5-2-5-2--
 Intro                                                                        

----------------------|----------------------------------------------------|--
----------------------|----------------------------------------------------|--
----------------------|----------------------------------------------------|--
----------------------|----------------------------------------------------|--
-5-2-2-5-2-2-5-2-2-8-8|-5-2-2-5-2-2-5-2-2-5-2-5-2-5-2-2-5-2-2-5-2-2-5-2-5-2|--
-5-2-2-5-2-2-5-2-2-8-8|-5-2-2-5-2-2-5-2-2-5-2-5-2-5-2-2-5-2-2-5-2-2-5-2-5-2|--
                     x2 Verse                          Repeat Through Verse   
[ Tab from: http://www.guitartabs.cc/tabs/c/coal_chamber/fiend_tab.html ]
-----------------------|-----------------|-------------------------------|----
-----------------------|-----------------|-------------------------------|----
-----------------------|-----------------|-------------------------------|----
-----------------------|-----------------|-------------------------------|----
-----------------------|-----------------|-6-6-5-6-6-5-6-6-5-6-6-5-6-6-5-|----
-----------------------|-----------------|-6-6-5-6-6-5-6-6-5-6-6-5-6-6-5-|----
 Then Intro As Chorus    Then Verse again  After second verse do this         

------------------|------------------------------------|-----------------|----
------------------|------------------------------------|-----------------|----
------------------|------------------------------------|-----------------|----
------------------|------------------------------------|-----------------|----
------------------|-11-10-11-10-11-10-11-10-11-10-11-10|-5-4-4-4-5-4-4-4-|----
------------------|-11-10-11-10-11-10-11-10-11-10-11-10|-5-4-4-4-5-4-4-4-|----
 Then Chorus again  after that chorus                    Repaet a few times   

----------------------------------------------|------------|------------------
----------------------------------------------|------------|------------------
----------------------------------------------|------------|------------------
----------------------------------------------|------------|------------------
----------------------------------------------|------------|------------------
----------------------------------------------|------------|------------------
 Back To the part that says AFTER SECOND VERSE  Then Chorus  Then Part after  

------------------------------------------------------------------------------
------------------------------------------------------------------------------
------------------------------------------------------------------------------
------------------------------------------------------------------------------
------------------------------------------------------------------------------
------------------------------------------------------------------------------
 second verse one last time and thats it.                                     

Comments