Coal Chamber - El Cu Cuy Chords & Tabs

 

El Cu Cuy Chords & Tabs

Coal Chamber Chords & Tabs

Version: 1 Type: Tab 0 ratings
1 star 2 stars 3 stars 4 stars 5 stars
comments

El Cu Cuy Tab

   
        WWW.METALTABS.COM

          URL: www.metaltabs.com
	EMAIL: webmaster@metaltabs.com

 ----------------------------------------------------------------------------------------------

	     SONG: El Cu Cuy
	     BAND: Coal Chamber
	    ALBUM: Chamber Music
   TRANSCRIBED BY: Josh Brown (joshbrown311@hotmail.com)
	     DATE: Unknown

 ----------------------------------------------------------------------------------------------

	TUNING: tune your guitar down as follows (A,E,A,D,G,B)


        () = palm mute


     RIFF 1:

    |-----------------------------|
    |-----------------------------|
    |-----------------------------|
    |-----------------------------|
    |-----------------------------|
    |-4-4-4-2-4-4-2-4--2-4--2-4-5-|

     RIFF 2:

    |-----------------------------|
    |-----------------------------|
    |-----------------------------|
    |-----------------------------|
    |-----------------------------|
    |-4-4-4-2-4-4-2-4--2-4--5-4-2-|

     RIFF 3:
[ Tab from: http://www.guitartabs.cc/tabs/c/coal_chamber/el_cu_cuy_tab.html ]
    |-----------------------------|
    |-----------------------------|  
    |-----------------------------|
    |-4-4-4-2-4-4-2-4--2-4--2-4-5-|
    |-4-4-4-2-4-4-2-4--2-4--2-4-5-|
    |-4-4-4-2-4-4-2-4--2-4--2-4-5-|

     RIFF 4:

    |-----------------------------|
    |-----------------------------|
    |-----------------------------|
    |-4-4-4-2-4-4-2-4--2-4--5-4-2-|
    |-4-4-4-2-4-4-2-4--2-4--5-4-2-|
    |-4-4-4-2-4-4-2-4--2-4--5-4-2-|

     RIFF 5:

    |-----------------------------|
    |-----------------------------|
    |-----------------------------|
    |-8-7--7--7--8-7--7--7--7-7-8-|
    |-8-7--7--7--8-7--7--7--7-7-8-|
    |-8-7--7--7--8-7--7--7--7-7-8-|

     RIFF 6:

    |-------------------------------|
    |-------------------------------|
    |-8--9----10--8----8--7----5--3-|
    |-x--x-----x--x----x--x----x--x-|
    |-6--7-----8--6----6--5----3--1-|
    |-------------------------------|

     RIFF 7:

    |--------------------|
    |--------------------|
    |--------------------|
    |-(1-1-1--1--1--1-1)-|
    |-(1-1-1--1--1--1-1)-|
    |-(1-1-1--1--1--1-1)-|

Comments