Coal Chamber - Clock Chords & Tabs

 

Clock Chords & Tabs

Coal Chamber Chords & Tabs

Version: 1 Type: Tab 0 ratings
1 star 2 stars 3 stars 4 stars 5 stars
comments

Clock Tab

Artist: Coal chamber
Song: clock
Tabbed by: rap_sucks
[ Tab from: http://www.guitartabs.cc/tabs/c/coal_chamber/clock_tab.html ]
Intro 
E-------------------- 
B-------------------- 
G--1-2-3-2--1-2-3-1-- 
D-------------------- 
A-------------------- 
E-------------------- 
*Not sure about this 
 
Riff1, Palm where needed 
D----------- 
A-44--4-3---repeat 
E-22--2-5--- 
 
Then 
E------------------- 
B------------------- 
G-1-2-3-2--1-3-2-1-- 
 
Verse, palm muting 
D----------------------------- 
A----------------------------- 
E-1-2-3-2-1--1-1--0-1--3-2-1-- 
 
Riff2 still "clock, it count my fears" 
D--------------------- 
A-4-5-0--4-4-5--0----- 
E-2-3-0--2-2-3--0----- 
 
Riff-2.5 (Played on top of Riff2) 
D-------- 
A-4---44--repeat 
E-2---22-- 
 
Riff3 "you can do better" 
E---0------------------ 
B---0------------------ 
B---0------------------ 
D-4----4/5-0--5-4--0---repeat 
A-4----4/5-0--5-4--0--- 
E-2----2/3-0--3-2--0--- 
 
Thing 
A-2-2-2-2-2--2-2--2-2--3-- 
E-2-2-2-2-2--2-2--2-2--3--repeat

Comments