Coal Chamber - Bradley Chords & Tabs

 

Bradley Chords & Tabs

Coal Chamber Chords & Tabs

Version: 1 Type: Tab 0 ratings
1 star 2 stars 3 stars 4 stars 5 stars
comments

Bradley Tab

   
Song: Bradley
By Jonathan Bissonnette

Tuning B E A D G B

Intro

|-----------------------------------|
|-----------------------------------|
|--------------------------------11-|
|--------------------------------10-|
|--------------------------------9--|
|-10-0-13p12-13p12-13p12-13p12-0----|

Verse

|----|
|----|
|----|
|-2~-|
|-2~-|
|-0~-|

|-----------------------------------|
|-----------------------------------|
|--------------------------------11-|
|--------------------------------10-|
|--------------------------------9--|
|-10-0-13p12-13p12-13p12-13p12-0----|x2

Chorus
[ Tab from: http://www.guitartabs.cc/tabs/c/coal_chamber/bradley_tab.html ]
|-0------------0-----------|
|-0------------0-----------|
|-0------------0-----------|
|-4/5-4-2-4-5--4/5-4-2-6-5-|
|-4/5-4-2-4-5--4/5-4-2-6-5-|
|-2/3-2-0-2-3--2/3-2-0-4-3-|x4

Bridge

|-0------------0-----------|
|-0------------0-----------|
|-0------------0-----------|
|-4-5-4-2-4-5--4-5-4-2-6-5-|
|-4-5-4-2-4-5--4-5-4-2-6-5-|
|-2-3-2-0-2-3--2-3-2-0-4-3-|

Outro

|-0------------0-----------|
|-0------------0-----------|
|-0------------0-----------|
|-4/5-4-2-4-5--4/5-4-2-6-5-|
|-4/5-4-2-4-5--4/5-4-2-6-5-|
|-2/3-2-0-2-3--2/3-2-0-4-3-|x3

|-0------------0---------------|
|-0------------0---------------|
|-0------------0---------------|
|-4/5-4-2-4-5--4/5-4-2-6-5--2~-|
|-4/5-4-2-4-5--4/5-4-2-6-5--2~-|
|-2/3-2-0-2-3--2/3-2-0-4-3--0~-|


Comments