Coal Chamber - Big Truck Chords & Tabs

 

Big Truck Chords & Tabs

Coal Chamber Chords & Tabs

Version: 4 Type: Tab 0 ratings
1 star 2 stars 3 stars 4 stars 5 stars
comments

Big Truck Tab

Tabbed by Ross Beaudin (deftones_ross@hotmail.com)

(main riff)
-------------------------------------------------------
-------------------------------------------------------
-------------------------------------------------------
-------------------------------------------------------
-------------------------------------------------------
-0-0-0-6-0--0-0-0-6-0-0-0-6--0-0-0-6-0--0-0-0-6-0-0-0-3
palm muted.............................................

-------------------------------------------------------
-------------------------------------------------------
--------------------------------------------------3-3--
--------------------------------------------------3-3--
-0-0-0-6-0--0-0-0-6-0-0-0-6--0-0-0-6-0--0-0-0-6-0-3-3--
palm muted.......................................

-------------------------------------------------------
-------------------------------------------------------
-------------------------------------------------------
-0-0-0-8-0--0-0-0-8-0-0-0-8--0-0-0-8-0--0-0-0-8-0-0-0-3
-0-0-0-8-0--0-0-0-8-0-0-0-8--0-0-0-8-0--0-0-0-8-0-0-0-3
-0-0-0-6-0--0-0-0-6-0-0-0-6--0-0-0-6-0--0-0-0-6-0-0-0-3
palm muted...........................................
[ Tab from: http://www.guitartabs.cc/tabs/c/coal_chamber/big_truck_tab_ver_4.html ]
-------------------------------------------------------
-------------------------------------------------------
-0-0-0-8-0--0-0-0-8-0-0-0-8--0-0-0-8-0--0-0-0-8-0-3-3--
-0-0-0-8-0--0-0-0-8-0-0-0-8--0-0-0-8-0--0-0-0-8-0-3-3--
-0-0-0-6-0--0-0-0-6-0-0-0-6--0-0-0-6-0--0-0-0-6-0-3-3--
palm muted.......................................


(movin, motion...)
-------------------------------------------------------
-------------------------------------------------------
-------------------------------------------------------
-2--------2------2--------2-1--------------------------
-2--------2------2--------2-1--------------------------
-2-0-0-0--2-0-0--2-0-0-0--2-1--------------------------
0's are palm muted


(big truck, big truck..)
-------------------------------------------------------
-------------------------------------------------------
-----9-------9---------9--------9----------------------
-0---x---0---x----0----x-----0--x----------------------
-0---7---0---7----0----7-----0--7----------------------
-0-------0--------0----------0-------------------------


(that weird part)
-------------------------------------------------------
-------------------------------------------------------
-------------------------------------------------------
-------------------15-----------------------------------
---15--15--15--15---------------------------------------
if you've heard them live its sounds like this


Comments