Coal Chamber - Big Truck Chords & Tabs

 

Big Truck Chords & Tabs

Coal Chamber Chords & Tabs

Version: 2 Type: Tab 0 ratings
1 star 2 stars 3 stars 4 stars 5 stars
comments

Big Truck Tab

   
Artist- Coal Chamber
Song- Big Truck
Tab - By Jonathan Bissonnette

Tuning- B E A D G B

Intro

|---------------------------------------------------------------|
|---------------------------------------------------------------|
|---------------------------------------------------------------|
|-------------------------------------------------------------5-|
|-------------------------------------------------------------5-|
|-0-0-0-6-0--0-0--0-0-6-0-0-6-0----0-0-0-6-0--0-0--0-0-6--0-0-3-|
  p.m......  p.m  p.m..........    p.m......  p.m  p.m..  p.m..

|------------------------------------------------------------|
|------------------------------------------------------------|
|------------------------------------------------------------|
|--------------------------------------------------------5-5-|
|--------------------------------------------------------5-5-|
|-0-0-0-6-0--0-0--0-0-6-0-0-6-0----0-0-0-6-0--0-0--0-0-0-3-3-|
  p.m......  p.m  pm...........    p.m......  p.m  p.m..

Verse

|---------------------------------------------------------------|
|---------------------------------------------------------------|
|---------------------------------------------------------------|
|-------------------------------------------------------------5-|
|-------------------------------------------------------------5-|
|-0-0-0-6-0--0-0--0-0-6-0-0-6-0----0-0-0-6-0--0-0--0-0-6--0-0-3-|

|--------------------------------------------------------0-0-|
|--------------------------------------------------------0-0-|
|--------------------------------------------------------0-0-|
|--------------------------------------------------------5-5-|
|--------------------------------------------------------5-5-|
|-0-0-0-6-0--0-0--0-0-6-0-0-6-0----0-0-0-6-0--0-0--0-0-0-3-3-|x4

Pre-chorus
[ Tab from: http://www.guitartabs.cc/tabs/c/coal_chamber/big_truck_tab_ver_2.html ]
|----------------------------------------------|
|----------------------------------------------|
|----------------------------------------------|
|-4-xxx-4-xx-4-xxx-4------4-xxx-4-xx-4-xxx-4-3-|
|-4-xxx-4-xx-4-xxx-4------4-xxx-4-xx-4-xxx-4-3-|
|-2-xxx-2-xx-2-xxx-2-0-0--2-xxx-2-xx-2-xxx-2-1-|

Before Verse 2- Same as Intro x2

Verse 2- Same as Verse 1 x3

Pre-chorus 2- Same as Prechorus 

Chorus

|----------------|
|----------------|
|---9------10-10-|
|---8------9--9--|
|---7------8--8--|
|-0----0-0-------|

|----------------|
|----------------|
|---10-----10-10-|
|---9------9--9--|
|---8------8--8--|
|-0----0-0-------|


Bridge w/Delay

|--------------|
|--------------|
|--------------|
|-14~~~~-------|
|-------13~~~~-|
|--------------|x4

|---------------------------------------------------------------|
|---------------------------------------------------------------|
|---------------------------------------------------------------|
|-------------------------------------------------------------5-|
|-------------------------------------------------------------5-|
|-0-0-0-6-0--0-0--0-0-6-0-0-6-0----0-0-0-6-0--0-0--0-0-6--0-0-3-|
  p.m......  p.m  p.m..........    p.m......  p.m  p.m..  p.m..

|--------------------------------------------------------0-0-|
|--------------------------------------------------------0-0-|
|--------------------------------------------------------0-0-|
|--------------------------------------------------------5-5-|
|--------------------------------------------------------5-5-|
|-0-0-0-6-0--0-0--0-0-6-0-0-6-0----0-0-0-6-0--0-0--0-0-0-3-3-|
  p.m......  p.m  p.m..........    p.m......  p.m  p.m..

|------------------------0-0-|
|------------------------0-0-|
|------------------------0-0-|
|------------------------5-5-|
|------------------------5-5-|
|--0-0-0-6-0--0-0--0-0-0-3-3-|x8

Pre-chorus 3- Same as Pre-chorus 1

Chorus 2- Same as Chorus 1


Comments