Coal Chamber - Big Truck Chords & Tabs

 

Big Truck Chords & Tabs

Coal Chamber Chords & Tabs

Version: 3 Type: Bass Tab 0 ratings
1 star 2 stars 3 stars 4 stars 5 stars
comments

Big Truck Bass Tab

!!! United States !!!Band: Coal Chamber
Song: Big Truck

any corrections or comments just email...rhcrombie@msn.com

\ = slide up
/ = slide down

0:03 - 0:58
D-------------------------------------------
A-------------------------------------------
E-------------------------------------------
B--0000-5-00-000-5050-0000-5-00-000-505-----
                                                x5
D-------------------------------------------
A-------------------------------------------
E-------------------------------------------
B--0000-5-00-000-5050-0000-5-00-000-66------


0:59 - 1:09
D-------------------------------------------
A-------------------------------------------
E-------------------------------------------    x4
B--3-333-3\1--------------------------------

Bass Solo
1:10 - 1:12
D-------------------------------------------
A-------------------------------------------
E-------------------------------------------
B--0000-5-00-000-505------------------------

[ Tab from: http://www.guitartabs.cc/tabs/c/coal_chamber/big_truck_btab_ver_3.html ]
1:13 - 1:57
D-------------------------------------------
A-------------------------------------------
E-------------------------------------------
B--0000-5-00-000-5050-0000-5-00-000-505-----
                                                x4
D-------------------------------------------
A-------------------------------------------
E-------------------------------------------
B--0000-5-00-000-5050-0000-5-00-000-66------


1:58 - 2:09
D-------------------------------------------
A-------------------------------------------
E-------------------------------------------    x4
B--3-333-3\1--------------------------------


2:10 - 2:20
D-------------------------------------------
A-------------------------------------------
E--1-11-------------------------------------    x4
B-------3/4---------------------------------


2:21 - 2:30
D-------------------------------------------
A-------------------------------------------
E-------------------------------------------    x2
B--1-11-1-11-01--1-11-1-01-0-1--------------


2:31 - 3:03
D-------------------------------------------
A-------------------------------------------
E-------------------------------------------    x4
B--3-333-3\1--------------------------------

3:04 - 3:26  Fade out on last note...
D-------------------------------------------
A-------------------------------------------
E--1-11-------------------------------------    x4
B-------3/4---------------------------------
Comments