Coal Chamber - Alienate Me Chords & Tabs

 

Alienate Me Chords & Tabs

Coal Chamber Chords & Tabs

Version: 2 Type: Tab 0 ratings
1 star 2 stars 3 stars 4 stars 5 stars
comments

Alienate Me Tab

The intro to this song was hard to figure out but the sound is still
not right but here is is as it stands:  Drop c tuning

Patrikalberts@msn.com

Intro: 2x
------------------------------------------------------------------|
------------------------------------------------------------------|
--------------------------------h3--------------------------------|
1-1-3-3-1-1--3-3--1-1-3-3-1-3-1-----------------------------------|
------------------------------------------------------------------|
------------------------------------------------------------------|

Intro: hard part heavy distortion
-----------------------------------------------------------------|
-----------------------------------------------------------------|
-----------------------------------------------------------------|
0hmr2-3-0hmr2-3------2-3-2-3-------------------------------------|
0hmr2-3-0hmr2-3------2-3-2-3-------------------------------------|
0hmr2-3-0hmr2-3------2-3-2-3-------------------------------------|
 4 times
[ Tab from: http://www.guitartabs.cc/tabs/c/coal_chamber/alienate_me_tab_ver_2.html ]
Verse:4x
------------------------------------------------------------------|
------------------------------------------------------------------|
--------------------------------h3--------------------------------|
1-1-3-3-1-1--3-3--1-1-3-3-1-3-1-----------------------------------|
------------------------------------------------------------------|
------------------------------------------------------------------|

Chorus:2x
---------------------------------------------------------------|
---------------------------------------------------------------|
---------------------------------------------------------------|
0hmr2-3--2-3--2-3--2-3--2-3--22-3------------------------------|
0hmr2-3--2-3--2-3--2-3--2-3--22-3------------------------------|
0hmr2-3--2-3--2-3--2-3--2-3--22-3------------------------------|

Bridge:2x
-------------------------------------------------------------------------------|
-------------------------------------------------------------------------------|
-------------------------------------------------------------------------------|
5-let ring----5-3-5-3----------------------------------------------------------|
5-------------5-3-5-3----------------------------------------------------------|
5-------------5-3-5-3----------------------------------------------------------|
Comments