Clutch - Yeti Chords & Tabs

 

Yeti Chords & Tabs

Clutch Chords & Tabs

Version: 2 Type: Tab 0 ratings
1 star 2 stars 3 stars 4 stars 5 stars
comments

Yeti Tab

The Yeti!

tabbed by mr. elusive (matt hall)

oh yeah and a 'b' means a slight bend

beginning
E------------------------|------------------------3--3~~-|
B------------------------|------------------------3--3~~-|
G------------------------|-------------------------------| I don't think tim uses
D--7---7\----------------|------------3b-----------------| those A notes in the first
A--5---5\----------------|--------3h5----5p3h5p3---------| bar but i like to do it
E-(5)-(5)---3h5-5-5-3\1--|--1/3h5------------------------|

Fill dealy
E--------------------------|
B--------------------------|
G--------------------------|
D-------------3b--5p3------|
A-----3b--3h5---------5p3--|
E-3h5----------------------|

other thing
E----------------------------------------------------------------|---------------------------|
B----------------------------------------------------------------|---------------------------|
G------7b--7b--5---5----5----------------------------------------|---------------------------|
D----------------0----------5--------------------5--5------7\5-5-|----------7-7-7-5----------|
A---5-----------------0---0----8--7--5---5h8-8-8------8-5--5\3-3-|-5-5-5-3--5-5-5-3--5-----3-|
E----------------------------------------------------------------|-3-3-3-1-------------3h5---|
p.m. these notes ^    ^   ^  or you could use 7's on the next string up
[ Tab from: http://www.guitartabs.cc/tabs/c/clutch/yeti_tab_ver_2.html ]
Verses (with wah)
E----------------------------------------|
B----------------------------------------|
G----------------------------------------|Play this four times;
D----------------3h5-5-5--5-5-5-6p5-3-3--| twice with the top notes
A-5p3-3--3--3-5--------------------------| once with the notes in parentheses
E---------------(1h3-3-3--3-3-3-4p3-1-1)-| then once more with the top notes

Choruses (no wah)
E------------------------------------------------------|
B-----------------------------------------7b-----------|
G----------5h7-7~--5---5-7~-----------5h7-7b--5--------|
D------5h7-----------7------------5h7-----------7-5----|
A-5--8-----------------------5--8-------------------8--|
E------------------------------------------------------|

E------------------------------------------------------|
B------------------------------------------------------|
G----------5h7-7~--5---5-7~-----7b--7b~-5-7-5----5--7--|
D------5h7-----------7------------------------7--------|
A-5--8-----------------------5-------------------------|
E------------------------------------------------------|

Bridges
E--------------------------------------------------|----------------------------|
B-------------------------------------7b-----------|----------------------------|
G-------------------------------------7b--5--------|----------5h7-7~--5---5-7~--|
D----------3h5-5~-3---3-----------5---------7-5----|------5h7-----------7-------|
A------3h5----------5---------5h7---7-----------7--|-5--8-----------------------|
E-3--6-------------------5--8----------------------|----------------------------|

throughout the song Tim will go back to the last parts of some of the riffs...
particularly the last bit of the chorus and the last bit of the part i labeled "other thing"

at about 3:38 he plays this riff:
E-----------------------------|
B-----------------------------|
G-----------------------------|
D----------3~-----------3-----|
A-3-3--3-5-----5--5-3-5---5~--|
E-----------------------------|

For the solo i use D sometimes... i think it's D minor though...
Comments