Clutch - The Mob Goes Wild Chords & Tabs

 

The Mob Goes Wild Chords & Tabs

Clutch Chords & Tabs

Version: 1 Type: Bass Tab 0 ratings
1 star 2 stars 3 stars 4 stars 5 stars
comments

The Mob Goes Wild Bass Tab

   
-------------------------------------------------------------------------------
			The Mob Goes Wild - Clutch
-------------------------------------------------------------------------------

Tabbed By : B. Graham
e-mail: bgraham74@sbcglobal.net

Tuning: Standard


     Intro
G|---------------------------------------------------------------------------|
D|---------------------------------------------------------------------------|
A|-----5-7-77---------------------------------------5--7-77------------------|
E|---------------------------------------------------------------------------|x4
       Please allow me to adjust my pants           So that I may put......

     Verse
G|--|------------------------------------------------------------------------|
D|--|----------------------------5-----------------------------5-------------|
A|-r|--5-7-7-7-7-5-7-7-7-7-5-7-7---7-5-7-7-7-7-5-7-7-7-7-5-7-7---7-----------|
E|--|------------------------------------------------------------------------|
       Give disease so that the swine will marry and propagate lies


G|---------------------------------------------------------------------------|
D|-----------5----------5----------------------------------------------------|
A|-----5-7-7---7--5-7-7---7--5-7-7-7-7-5-7-7-7-7-5-7-7-7-7-5-7-7-7-----------|
E|---------------------------------------------------------------------------|

G|---------------------------------------------------------------------------|
D|-------------------------------5-------------------------------------------|
A|-----5---------7---------5-------7--5-------5-------5----------------------|
E|-------0-0-0-0---0-0-0-0---0-0--------0-0-0---0-0-0----3-3-3-5-------------|
[ Tab from: http://www.guitartabs.cc/tabs/c/clutch/the_mob_goes_wild_btab.html ]
     Chorus
G|---------------------------------------------------------------------------|
D|-----------5---------------------------------------------------------------|
A|--------57----7-5----------------------------------------------------------|
E|------0-------------7-5-3-0------------------------------------------------|x4
        Streets on fire. The mob goes wild
G|---------------------------------------------------------------------------|
D|---------------------------------------------------------------------------|
A|------00-0-0-0-0-0-0-0-----------------------------------------------------|
E|-----------------------3-3-3-3-5-5-5-5-------------------------------------|x4
        21 guns a box made of pine
G|---------------------------------------------------------------------------|
D|---------------------------------------------------------------------------|
A|---------------------------------------------------------------------------|
E|-----7-7-7-7-7-7-7-7-7-7-7-7--10--7----10---7-----10--10--7--5-------------|

       Verse
G|---------------------------------------------------------------------------|
D|---------------------------------------------------------------------------|
A|-------------------------------5-----------------------------5-------------|
E|-----5-7-7-7-7-5-7-7-7-7-5-7-7---7-5-7-7-7-7-5-7-7-7-7-5-7-7---7-----------|
       Condaleeza Rice is nice but I perfer A-Roni
Repeat verse riff 4 x's

      Solo
G|---------------------------------------------------------------------------|
D|-----------5---------------------------------------------------------------|
A|-------57-----7--5---------------------------------------------------------|
E|----0---------------7--5--3-0----------------------------------------------|


Repeat chorus riff 4 x's

     Outro
G|---------------------------------------------------------------------------|
D|---------------------------------------------------------------------------|
A|---------------------------------------------------------------------------|
E|----7-7-7-7-7-7-7-7-7-7-7-7-7-7-7-7-7-7-7----------------------------------|
                                                    ...random notes


Play along with the cd to get the right tempo and any variations there might be.
This is my first time tabbing so if there is anything missing or wrong please let me know.


| /  slide up
| \  slide down
| h  hammer-on
| p  pull-off
| ~  vibrato
| +  harmonic
| x  Mute note
===============================================================================
Comments