Clutch - Regulator Chords & Tabs

 

Regulator Chords & Tabs

Clutch Chords & Tabs

Version: 2 Type: Tab 0 ratings
1 star 2 stars 3 stars 4 stars 5 stars
comments

Regulator Tab

   
Bastardized by thanksanyway04

tabbed by ALDISIMO

drop D

Intro

e---------------------------------------------------------------------------|
b-3----3-1------------------------------------------------------------------|
g----------2-1-0-0h1p0------------------------------------------------------|
d-0---------------------3-0-3s5----3-0----0-3-0-3s5----3-0------------------|
a---------------------------------------------------------------------------|
D-----------------------3-0-3s5----3-0----0-3-0-3s5----3-0------------------|

e---------------------------------------------------------------------------|
b-1h3-1h3-3-1----------------------3--------------------3-------------------|
g-------------2-1-0-0h1p0---------------------------------------------------|
d-0---0--------------------3-0-3s5----3-0----0-3-0-3s5----------------------|
a---------------------------------------------------------------------------|
D--------------------------3-0-3s5----3-0----0-3-0-3s5----3-----------------|

1st guitar
e---------------------------------------------------------------------------|
b---------------------------------------------------------------------------|
g-----------------(4X)------------------------------------------(2X)--------|
d--0-0-0---0------------0-0-0-0-----------------0-0-0-0-0-0-0-0-------------|
a-------0h3-----------------------------------------------------------------|
D-0-0-0----------------0-0-0-0-7--5--3-0-3-0-3-0-0-0-0-0-0-0-0--------------|

e---------------------------------------------------------------------------|
b---------------------------------------------------------------------------|
g--0-0-0-0-0-0-0--------------------(2X)------------------------------------|
d-------------------0-0-0-0-0-0-0-0-----------------------------------------|
a-0-0-0-0-0-0-0-0-----------------------------------------------------------|
D----------------3-0-0-0-0-0-0-0-0------------------------------------------|

2nd Guitar
e----1---------0-0-----------------------------0--0--0-----------------|
b-3---3-1-3---0-0----------1-3-3--1-3-3------------------1-3-3--1-3-3--|
g------------2-0------------------------(2X)--2-2--2--2----------------|(2X)
d----------------3-0-3-0-3-----------------------------3---------------|
a--------------------------------------------0---0--0------------------|
D----------------------------------------------------------------------|
[ Tab from: http://www.guitartabs.cc/tabs/c/clutch/regulator_tab_ver_2.html ]
Verse                          little lead part Chorus effect
Oh I see...                       \                             /
e----------------------------------------------1--------------1-------------|
b-----------------------------------3-1-3-3-1-3-3--3-1-3-3-1-3-3------------|
g------------------------------------------------------(2X)-----------------|
d--0-0-0---0-0-0-0-----0-3-3-3-3-5-5-0-0-0-----0-0-0---0--------------------|
a-------0h3--------0h3--------------------0h3-------0h3---------------------|
D-0-0-0-----0-0-0-------3-3-3-3-5-5-0-0-0-----0-0-0-------------------------|

And how many times....       \  lead     /
e----------------------------------1----------------------------------------|
b-----------------------------3-1-3-3-1-3~----------------------------------|
g-----------------------------------------------(2X)------------------------|
d---10--10--10--10-5-5-5-5-0-0-0---0-0-0-0---0------------------------------|
a-------------------------------0h3-------0h3-------------------------------|
D-10--10--10--10--5-5-5-5-0-0-0-----0-0-0-----------------------------------|
Chorus
Dream with the....
e---------------------------------------------------------------------------|
b---------------------------------------------------------------------------|
g10---7--5-7---------------5-7-7--5-7-7--(2X)-------------------------------|
d10---7--5-7-7-5-3-0-3-0-3-5-7-7--5-7-7-------------------------------------|
a-8---5--3-5-7-5-3-0-3-0-3-3-5-5--3-5-5-------------------------------------|
D------------7-5-3-0-3-0-3--------------------------------------------------|

Come with me...             \     lead while chord rings    (2X)   /
e-------------------------------------------------12-------------------------|
b--------------------------------------------------------15------------------|
g-9~-------------5-7-7-(2X)---12h14-12h14-12h14-14--12h14--14-12h14~---------|
d-7~-------------5-7-7----------------------------------------------------0~-|
a-7~-------------3-5-5----------------------------------------------------0~-|
D-7~----------------------------------------------------------------------0~-|

    That's pretty much the whole song just repeat the verse and chorus.  Then play the 
with me part four time and on the fifth one end it like this....
e---------------------------------------------------------------------------|
b---------------------------------------------------------------------------|
g-5-7-5-7-------------------------------------------------------------------|
d-5-7-5-7-7---5-3-0~--------------------------------------------------------|
a-3-5-3-5-7---5-3-0~--------------------------------------------------------|
D---------7---5-3-0~--------------------------------------------------------|

 That's it, thanks anyway to thanksanyway for writting a shitty tab
Challenge me to Halo 2 thanksanyway ill kick your ass just like my tab kicked your tabs ASS!
Comments