Clutch - Jesus On The Dashboard Chords & Tabs

 

Jesus On The Dashboard Chords & Tabs

Clutch Chords & Tabs

Version: 1 Type: Bass Tab 0 ratings
1 star 2 stars 3 stars 4 stars 5 stars
comments

Jesus On The Dashboard Bass Tab

   
Clutch - Jesus On The Dashboard

h - hammer on 
p - pull off 
^ - bend string up
r - release bend
/ - slide up
\ - slide down
~ - vibrato (sometimes written as v)
t - right hand tap
x - play 'note' with heavy damping




Tuning:EADG (Standard)
Tabbed by: Stephen Norman (stephen_norman911@hotmail.com)

[ Tab from: http://www.guitartabs.cc/tabs/c/clutch/jesus_on_the_dashboard_btab.html ]
[MAIN RIFF]
G|-------------------|-------------------|-------------------|
D|-------------------|-------------------|-------------------|
A|----5h7-5h8----8p7-|----5h7-5h8----8p7-|----5h7-5h8----8p7-|
E|--0----------0-----|--0----------0-----|--0----------0-----|

|----------------------|
|----------------------|
|----5h7-5-------------|
|--0-------7-0-3h45p43-|



[CHORUS]
G|---------------------|
D|---------------------|
A|---3-5-3--1--33------|
E|-0------0-------0-^3-|


[BRIDGE]
G|-----------------------|------------------------|
D|-----------------------|------------------------|
A|----3h55---3h55--3h55~-|---3h55---3h55---3h5-3--|
E|--0------0------0------|-0------0------0--------|


Repeat riffs neccesary times, any corrections send them to my email.(listed above.)

:D
Comments