Clutch - Crackerjack Chords & Tabs

 

Crackerjack Chords & Tabs

Clutch Chords & Tabs

Version: 2 Type: Tab 0 ratings
1 star 2 stars 3 stars 4 stars 5 stars
comments

Crackerjack Tab

Clutch - Crackerjack

Main theme / intro:
Bass twice, then clean guitar twice
E-----------------------------------|------------------------|
B-----------------------------------|------------------------|
G-----------------------------------|------------------------|
D-5b-1--3--1-----------1--3--1------|-5b--1--3--1------------|
A-------------3--1--3-----------3-1-|-------------3--1--3\---|
E-----------------------------------|------------------------|

Horn transcribed for guitar (more to come later)
E--------------------------------------|
B-----------------------------------8\-|
G--10br-8-10-8---10b-10-8-10-8------8\-|
D------------------------------10-8----|
A--------------------------------------|
E--------------------------------------|

Fill dealy: (omit the last note of the
previous phrase in favor of this fill)
(dirty guitar)
E------------------------|
B------------------------|
G---------3---5------3h5-|
D-3---5---1---3--3h5-----|
A-1---3------------------|
E------------------------|
[ Tab from: http://www.guitartabs.cc/tabs/c/clutch/crackerjack_tab_ver_2.html ]
Chorus (2nd theme):
E--------------------------|-------------------------|
B--------------------------|-------------------------|
G--------5-----------------|--------5----------------|
D-1---------3~--1----------|-1---------3~-1--5--5--3-|
A---1/3------------3--1--3-|---1/3-----------3--3--1-|
E--------------------------|-------------------------|

The second time, this part steps in after the third repeat
It's just the 2nd theme modulated up a perfect fourth
E--------------------------|------------------------|
B--------6-----------------|--------6---------------|
G-1---------3~--1----------|-1---------3~-1--5--5---|
D---1/3------------3--1--3-|---1/3-----------3--3---|
A--------------------------|------------------------|
E--------------------------|------------------------|

There's an improvised solo here... i seem to remember
reading that it was in C minor on the old tab archive...

2nd fill thing:
B---------------------------------------------|
G---------------------------------------------|
D-0-------------------------------------------|
A------1b----1h3-3b-3b-1----------------------|
E-3--3----3-----------------------1-----------|
E------------------------1h2h3-3----3---------|

You could call this a
fill or a bridge i guess
E------------|
B------------|
G------------|
D------------|
A-6--5--4--5-|
E-4--3--2--3-|
Comments