Club Foot - Kasabian Chords & Tabs

 

Kasabian Chords & Tabs

Club Foot Chords & Tabs

Version: 1 Type: Tab 1 rating
1 star 2 stars 3 stars 4 stars 5 stars
comments

Kasabian Tab

   
drw
Kasabian 
club foot 

Tuning 
E-B-G-D-A-C


Intro/chorus
E|------------------------------------|
B|------------------------------------|
G|------------------------------------|x4
D|---------------------------53-131---|
A|---------3-63636---------3--------3-|
C|-00000-0---------00000-0------------| 
 
verse
E|------------------------------------------|
B|------------------------------------------|
G|-3-/-5--5-5-5-5-5--5--3-/-5--5--3-/-5-5-5-|x4
D|-x-/-x--x-x-x-x-x--x--x-/-x--x--x-/-x-x-x-|
A|-1-/-3--3—3-3-3-3--3--1-/-3--3--1-/-3-3-3-|
C|------------------------------------------| 

chorus
E|------------------------------------|
B|------------------------------------|
G|------------------------------------|x2
D|---------------------------53-131---|
A|---------3-63636---------3--------3-|
C|-00000-0---------00000-0------------| 

verse
E|------------------------------------------|
B|------------------------------------------|
G|-3-/-5--5-5-5-5-5--5--3-/-5--5--3-/-5-5-5-|x4
D|-x-/-x--x-x-x-x-x--x--x-/-x--x--x-/-x-x-x-|
A|-1-/-3--3—3-3-3-3--3--1-/-3--3--1-/-3-3-3-|
C|------------------------------------------|

chorus
E|------------------------------------|
B|------------------------------------|
G|------------------------------------|x4
D|---------------------------53-131---|
A|---------3-63636---------3--------3-|
C|-00000-0---------00000-0------------| 
[ Tab from: http://www.guitartabs.cc/tabs/c/club_foot/kasabian_tab.html ]
Solo:
E|----------------------------------|
B|----------------------------------|
G|----------------------------------|
D|-------5-3-131---3-1-0-0-1-0-3-0-5|
A|-3-6----------3-3-3-3-------------|
C|----------------------------------|

E|----------------------------------------------------------|
B|----------------------------------------------------------|
G|----------------------------------------------------------|
D|-5-----3h5-5-----3h5-5---3h5-5-/--8-/-10—-12--------------|
A|----------------------------------------------------------|
C|----------------------------------------------------------|

E|--------------------------|
B|--------------------------|
G|--------------------------|
D|-12--10--8--5------3---5--|
A|--------------------------|
C|--------------------------|

E|------------------------------------|
B|------------------------------------|
G|------------------------------------| x4
D|---------------------------53-131---|
A|---------3-63636---------3--------3-|
C|-00000-0---------00000-0------------|

E|------------------------------------------|
B|------------------------------------------|
G|-3-/-5--5-5-5-5-5--5--3-/-5--5--3-/-5-5-5-|x10
D|-x-/-x--x-x-x-x-x--x--x-/-x--x--x-/-x-x-x-|
A|-1-/-3--3—3-3-3-3--3--1-/-3--3--1-/-3-3-3-|
C|------------------------------------------| 

this is it.  it took me a while, but here it is. i saw that someone wanted it on the 
requests.  and i really like this song.  



Comments