Close To Nowhere - This Time Of Year Chords & Tabs

 

This Time Of Year Chords & Tabs

Close To Nowhere Chords & Tabs

Version: 2 Type: Tab 0 ratings
1 star 2 stars 3 stars 4 stars 5 stars
comments

This Time Of Year Tab

   
Close To Nowhere


THIS TIME OF YEAR

this is how I saw kevin play it whenI saw them last month.
it s played iwth a capo on the 2nd fret. The beat is a
3-for-a-time waltzy thing.  If you listen to the cd, it
will be no problem.  if don't have the CD then get it off
of blubster, that is where I got it originally then bought
their CD casue they rock. this is a beautiful song and
should be played accordingly.  IF you didn' know kevin Powell
acoustic guitar) wrote this about his friend that got hit
by a train.

Intro/Verse:
----0--------0---0---|
----0--3--3--3---3---|
----0--0--0--0---2---|
-------0--4------0---|
----------0--0---0---|
---------------------|
[ Tab from: http://www.guitartabs.cc/tabs/c/close_to_nowhere/this_time_of_year_tab_ver_2.html ]
----0--------0---0---|
----0--3--3--3---3---|
----0--0--0--0---2---|
-------0--4------0---|
----------0--0---0---|
---------------------|

Bridge:
B#m, G, B#m, G,
with finger tips slipping . . .

B#m, G, B#m, G
B#m, G, B#m, G
       B#m,                       G,                     A,  A#m
as we heard in the distance the trains loney whistle draw   ne-ar

Chorus:
---0--0--0--0--0--0--0--0--|
---3--3--3--3--3--3--3--3--|
---2-----------------------| Repeat over and over
---0--------------------2--|
------4--2--0--2-----2-----|
---------------3- 2--0-----|

here is there web site:
http://www.geocities.com/ponectar/close-to-nowhere.html?1011915500998
Comments