Clit 45 - Cant Stop The Bleeding Chords & Tabs

 

Cant Stop The Bleeding Chords & Tabs

Clit 45 Chords & Tabs

Version: 1 Type: Tab 0 ratings
1 star 2 stars 3 stars 4 stars 5 stars
comments

Cant Stop The Bleeding Tab

                        
CLIT 45 - Can't Stop the Bleeding
Album: Self-Hate Crimes

Tabbed by: theabortions
Tuning: standard
/= slide 
*= feedback


Intro
e[-------------------------------------------------------------------|
b[-------------------------------------------------------------------|
g[---------***-*----*-*****---*----*****-----------------------------|
D[-6/7/6--*----*----*---*-----*--*-****---6/7/6666666666666666666666-|
A[-6/7/6--*----*----*---*-----****-----*--6/7/6666666666666666666666-|
E[-4/5/4---***-****-*---*--------*-****---4/5/4444444444444444444444-|

[ Tab from: http://www.guitartabs.cc/tabs/c/clit_45/cant_stop_the_bleeding_tab.html ]
Verse
e[-------------------------------------------------------------------|
b[-------------------------------------------------------------------|
g[-------------------------------------------------------------------|
D[-6/7/6-666666/7/6-666666/4/6-66666/7/6-4-2-4-6-7-------------------|
A[-6/7/6-666666/7/6-666666/4/6-66666/7/6-4-2-4-6-7-------------------|
E[-4/5/4-444444/5/4-444444/2/4-44444/5/4-2-0-2-4-5-------------------|


Chorus
e[-------------------------------------------------------------------|
b[-------------------------------------------------------------------|
g[-------------6666666-------7777-6666666------------99776-----------|
D[-6/7777-9999-66666669-7777-7777-66666669-7777-9999-99776-----------|
A[-6/7777-9999-44444449-7777-5555-44444449-7777-9999-77554-----------|
E[-4/5555-7777--------7-5555-------------7-5555-7777-----------------|


Outro ("Can't Stop the Bleeding" part)
e[-------------------------------------------------------------------|
b[-------------------------------------------------------------------|
g[-6/7/6-666666/7/6-666666/4/6-666666/7/6-4-2-4-6-7------------------|
D[-6/7/6-666666/7/6-666666/4/6-666666/7/6-4-2-4-6-7------------------|
A[-4/5/4-444444/5/4-444444/2/4-444444/5/4-2-0-2-4-5------------------|
E[-------------------------------------------------------------------|




Intro
Verse 2x
Chorus
Verse 2x
Chorus	
Outro 



*Jack-Donny-Germ-Kyle-Chris*
Comments