Clint Mansell - Tree Of Life Chords & Tabs

 

Tree Of Life Chords & Tabs

Clint Mansell Chords & Tabs

Version: 1 Type: Tab

Tree Of Life Tab

Song: Tree of Life
Artist: Clint Mansell
Album: The Fountain
Tuning: Drop D

Sorry for the disorganization. A lot of it was just little riffs that were hard to hear.

0:00
|-----------------10(with a tremolo)------------------------------| 
|-----------------------------------------------------------------| 
|-----------------------------------------7h10p7h10p7h10p7h10p7---| This is constant 
|-----------------------------------------------------------------| through the first section
|-----------------------------------------------------------------|
|---2---3---2-0~--------------------------------------------------|

Lead Strings
|-----------------------------------------------------------------| 
|-------11------10~-----------------------------------------------|
|-/10-------------------------------------------------------------|
|-----------------------------------------------------------------| 
|-----------------------------------------------------------------|
|-----------------------------------------------------------------|


0:34
|-----------------------------------------------------------------| 
|-----------------------------------------------------------------|
|-7h10p7h10p7h10p7h10p7h10p7h10p7h10p7h10-------------------------|
|-----------------------------------------------------------------| 
|-5----5----5----5----5----5----5----5----------------------------|
|-----------------------------------------------------------------|


0:52
|---------------------------------------------------------------------| 
|---------------------------------------------------------------------|
|---------------------------------------------------------------------|
|---------------------------------------------------------------------| 
|---------------------------------------------------------------------|
|---2---3---2-0~------2---3---2-0~------2---3---2-7~------2---3---2-7~|

Lead repeat starting from 0:52
|-----------------------------------------------------------------| 
|-----------------------------------------------------------------|
|---------------7-10-----7-10-----7-10-----7-10-------------------|
|-------------7--------7--------7--------7------------------------| 
|-----------------------------------------------------------------|
|-----------------------------------------------------------------|


1:13
|--------------------------------------------------------------------------| 
|--------------------------------------------------------------------------|
|--------------------------------------------------------------------------|
|--------------------------------------------------------------------------| 
|--------------------------------------------------------------------------|
|---2---3---2-0~------2---3---2-8~------2---3---2-10~------2---3---2-8~----|
|
|-------------------------------------------------6~-----------------6~----| 
|-------------6~----------------6~----------------6~-----------------6~----|
|-------------7~----------------7-----------------7~-----------------7~----|
|-------------7~----------------7-----------------7~-----------------7~----| 
|--------------------------------------------------------------------------|
|--------------------------------------------------------------------------|
|
|-------------17~---------------18~---------------17~----------------18~---| 
|--------------------------------------------------------------------------|
|--------------------------------------------------------------------------|
|--------------------------------------------------------------------------| 
|--------------------------------------------------------------------------|
|--------------------------------------------------------------------------|

[ Tab from: http://www.guitartabs.cc/tabs/c/clint_mansell/tree_of_life_tab.html ]
|-----------------------------------------------------------------| 
|-----------------------------------------------------------------|
|-----------------------------------------------------------------|
|-----------------------------------------------------------------| 
|-----------------------------------------------------------------|
|---2---3---2-0~------2---3---2-8~------2---3---2-----------------|
|
|-------------------------------------------------5~--------------| 
|-------------6~----------------6~----------------6~--------------|
|-------------7~----------------7-----------------7~--------------|
|-------------7~----------------7-----------------7~--------------| 
|-----------------------------------------------------------------|
|-----------------------------------------------------------------|
|
|-------------17~---------------18~---------------17~-------------| 
|-----------------------------------------------------------------|
|-------------5n*-------------------------------------------------|
|-----------------------------------------------------------------| 
|-----------------------------------------------------------------|
|-----------------------------------------------------------------|



Second Section
1:42 (Watch for Timing)
|-----------------------------------------------------------------| 
|-----------------------------------------------------------------|
|-10--\7~-----12~------12~------5------0~---3~-\\\\2----------7---|
|-----------------------------------------------------------------| 
|-----------------------------------------------------------------|
|-----------------------------------------------------------------|

|-----------------------------------------------------------------| 
|-----------------------------------------------------------------|
|-/12~------(5~)------------0---3--(3)\\\2-----(12---10---5---7~--|
|-----------------------------------------------------------------| 
|-----------------------------------------------------------------|
|-----------------------------------------------------------------|

|-----------------------------------------------------------------| 
|-----------------------------------------------------------------|
|-12----7---5)-------7\----0---3\\\2-------10~----7-12~(tremolo)--|
|-----------------------------------------------------------------| 
|-----------------------------------------------------------------|
|-----------------------------------------------------------------|

Other
|-----------------------------------------------------------------| 
|-15-11\----------------------------------------------------------|
|--(choir)------------------3-------------------------------------|
|---------------------------7-(around 2:45)-----------------------| 
|-----------------------------------------------------------------|
|-----------------------------------------------------------------|


2:52
|-----------------------------------------------------------------| 
|-------------------------------------------15~-------------------|
|-12\\--0---3\\2/10~---------12~----------------------------------|
|-----------------------------------------------------------------| 
|-------------------------------------------5~--------------------|
|-----------------------------------------------------------------|

3:05
|-----1013-----1013-----1013-----1013-----1013-----1013-----1013--| 
|---10x-x----10x-x----10x-x----10x-x----10x-x----10x-x----10x-x---|
|---x-7-10---x-7-10---x-7-10---x-7-10---x-7-10---x-7-10---x-7-10--|
|-0-7--------7--------7--------7--------7--------7--------7-------| 
|-----------------------------------------------------------------|
|-0---------------------------------------------------------------|

Lead
|---------------------------| 
|------11~------10~---------|
|-10------------------------|
|---------------------------| 
|---------------------------|
|---------------------------|

Bass (just repeat)
|---------------------------| 
|---------------------------|
|---------------------------|
|---------------------------| 
|-------------5~------------|
|---2---3---2-0~------------|

Ending
|---------------------------| 
|-10~~~---------------------|
|---------------------------|
|-6~------------------------| 
|-4~------------------------|
|-0~------------------------|