Clinic - Cry Chords & Tabs

 

Cry Chords & Tabs

Clinic Chords & Tabs

Version: 1 Type: Tab

Cry Tab

   
							CLINIC - Cry

15:45 28.12.2005




Intro

(2-E-Gitarre)

E---------5-5-5-5---------3-3-3-3-----|
A-3-3-3-3---------5-5-5-5-------------|		
D-------------------------------------|x2
G-------------------------------------|
B-------------------------------------|
E-------------------------------------|

VERS

E---------5-5-5-5---------3-3-3-3-----|
A-3-3-3-3---------5-5-5-5-------------|		
D-------------------------------------|x2
G-------------------------------------|
B-------------------------------------|
E-------------------------------------|

(Bass)

D-------------------------------------|
G-------------------------------------|x2
B---------5-5-5-5---------3-3-3-3-----|
E-3-3-3-3---------5-5-5-5-------------|

-----------------------------------------------------
Refrain 

(1-E-GItarre)
[ Tab from: http://www.guitartabs.cc/tabs/c/clinic/cry_tab.html ]
E-------------------------------------|
A-------------------------------------|		
D---------7-7-7-7---------5-5-5-5-----|x3
G-5-5-5-5-7-7-7-7-7-7-7-7-5-5-5-5-----|
B-5-5-5-5-5-5-5-5-7-7-7-7-3-3-3-3-----|
E-3-3-3-3---------5-5-5-5-------------|

(2-E-Gitarre)

E---------5-5-5-5---------3-3-3-3-----|
A-3-3-3-3---------5-5-5-5-------------|		
D-------------------------------------|x3
G-------------------------------------|
B-------------------------------------|
E-------------------------------------|

End of Refrain

D-------------------------------------|
G-------------------------------------|
B---------5-5-5-5---------3-3-3-3-----|
E-3-3-3-3---------5-5-5-5-------------|

-----------------------------------------------------
Verse


(2-E-Gitarre)

E---------5-5-5-5---------3-3-3-3-----|
A-3-3-3-3---------5-5-5-5-------------|		
D-------------------------------------|x4
G-------------------------------------|
B-------------------------------------|
E-------------------------------------|

(Bass)

D-------------------------------------|
G-------------------------------------|x4
B---------5-5-5-5---------3-3-3-3-----|
E-3-3-3-3---------5-5-5-5-------------|