Cliff Burton - Bass Solo Chords & Tabs

 

Bass Solo Chords & Tabs

Cliff Burton Chords & Tabs

Version: 1 Type: Bass Tab 0 ratings
1 star 2 stars 3 stars 4 stars 5 stars
comments

Bass Solo Bass Tab

Cliff Burton solo


G---------------------------------------------------------
D---------------------------------------------------------
A----------------------------------------------7----------
E-0----0-0-0-0-0-0---3-5-6--0-0-0---3-5-3-5--0----0-3-5-6-
[ Tab from: http://www.guitartabs.cc/tabs/c/cliff_burton/bass_solo_btab.html ]
G-----------------------|---------------------------------
D-----------------------|---------------------------------
A-----------------------|7-------------7-7-7--5-----------
E--0-66--0-66--0-6-3-0--|----0-3-5-6-------------7-5-3-0--
                        |_______________________________________
                                                                |
G---------------------------------------------------------|     | 
D---------------------------------------------------------|     |     
A--7------------------------------------------------------|     |     
E-----0-3-5-6---0-66--0-66--0-6-3-0-----------------------|    x3

G---------------------------------------------------------
D---------------------------------------------------------
A--7------------7-7-7-5------------7----------------------
E----0-3-5-6-------------7-5-3-0----0-3-5-6--0-66-0-66----

G---------------------------------------------------------
D---------------------------------------------------------
A---------------------------------------------------------
E--------66--0-66--------66--0--66------66--0--66-0-6-3-0-
Comments