Clement Peerens Explosition - Foorwijf Chords & Tabs

 

Foorwijf Chords & Tabs

Clement Peerens Explosition Chords & Tabs

Version: 1 Type: Bass Tab 0 ratings
1 star 2 stars 3 stars 4 stars 5 stars
comments

Foorwijf Bass Tab

   
Artist: Clement Peerens Explosition (CPEX)
Song title: Foorwijf
Tabbed by Clement Peerens

Intro drum + vocals only

Intro 
|---------------------|
|---------------------|
|---------------------|
|-4444-5555-6666-5555-|

Main riff
|-------------------|----------------|
|-------------------|----------------|  2x
|-------1-1-3s4-3-1-|----------------|
|-1h3333-3----------|-1h333333-1h333-|

Verse 
|-------------------|-------------------|
|-3h5-3h5-3h5-3h5-5-|-------------------|  4x
|-------------------|-------1-1-3s4-3-1-|
|-------------------|-1h3333-3----------|
[ Tab from: http://www.guitartabs.cc/tabs/c/clement_peerens_explosition/foorwijf_btab.html ]
Chorus 
|--------------------------------|
|--------------------------------|
|-------6644------6644------6644-|
|-444444----444444----444444-----|

Post Chorus
|---------------------|
|---------------------|
|---------------------|
|-4444-5555-6666-5555-|

Main riff
Verse 3x, 4th time: E|-3s1-| and rest
Chorus
Post chorus
Main riff

Bridge
|---------------|
|-------2-3-----| 4x
|---3-5-----5-3-|
|-5-------------|

Chorus
Post Chorus 3x
End on E|-4-|

| /  slide up
| \  slide down
| h  hammer-on
| p  pull-off
| s  slide
| ~  vibrato
| +  harmonic
| x  Mute note
Comments