Clement Peerens Explosition - Dikke Lu Chords & Tabs

 

Dikke Lu Chords & Tabs

Clement Peerens Explosition Chords & Tabs

Version: 1 Type: Bass Tab 0 ratings
1 star 2 stars 3 stars 4 stars 5 stars
comments

Dikke Lu Bass Tab

   
Artist: Clement Peerens Explosition (CPEX)
Song Title: Dikke Lu
Standard tuning

Intro
|--------------------------|-----------------------------|
|--------------------------|-----------------------------|
|--------------------------|------------2-1-0h2-0-0-0/12-|
|------------------------5-|-----------------------------|

Guitar only

Main riff
|-------------------------------------|
|-------------------------------------|
|------3-5-3---5-3-5-3-------3-5-3---|
|-5-5-5-5-----5----5----5-5-5-5----5-|

      E|-5-|                 E|-5-|
......dikke lu                ...... dedju

Main riff variation
|-------||---------------------------------------|
|-------||---------------------------------------| 2x
|-------||------3-5-3---5-3-5-3-------3-5-3-----|
|-0-1-3-||-5-5-5-5-----5----5----5-5-5-5----5\1-|

Bridge 1
|---------|
|---------|
|-0-1-2-3-|
|---------|

|-------------------3-2--|
|------------------------| 2x
|-3-3-3-1-0--3-3-3-1---0-|
|------------------------|
[ Tab from: http://www.guitartabs.cc/tabs/c/clement_peerens_explosition/dikke_lu_btab.html ]
|-------------------5-4--|
|------------------------| 2x
|-5-5-5-3-2-5-5-5-3---3-|
|------------------------|

|-------------------7-6--|               
|------------------------| 1x  
|-7-7-7-5-4-7-7-7-5---5-|
|------------------------|

|------------------------|
|------------------------|
|-7-7-7-5-4--------------|
|------------0-0-0-0-0-0-|

Main riff variation (first line without E|-0-1-3-|)

|---------|                 |-------------| 
|---------| + guitar solo + |-------------|  all this 2x
|---------|   (no bass)     |------3-5-3--|
|-0-1-3-5-|                 |-5-5-5-5---5-|

Bridge 2
|------------------------|
|-7-5-4-3-------------|
|-------------7-5-3------|
|-------------------5-3-5|

Main riff variation

From min 2.26 till min 2.30 the bass keeps on playing  E|-5-5-5-| (listen to the song)

After min 2.30, you start in the middle of the main riff variation (to make it fit)
and stop playing after "pikke"

Guitar only

End
|-----------------|
|-7-7-7-7-5-------|
|----------7-5----|
|-------------8-5-|
Comments