Clemency - Come Around Chords & Tabs

 

Come Around Chords & Tabs

Clemency Chords & Tabs

Version: 1 Type: Tab 0 ratings
1 star 2 stars 3 stars 4 stars 5 stars
comments

Come Around Tab

Come Around by Clemency is one of my favorite songs. There is'nt any tabs by Clemency on
ultimateguita.com so I decided to tab out this song an hopefully other guitarist will tab
out others an put them on here

This tab is 100 % correct

Standard Tuning :

Intro : 

My mind is sick, my heart beats slow without you but when you come around it's beautiful
beautiful

e[----x----x----x----]
b[----x----x----x----]
g[----9----9----x----]  Listen for strum pattern
d[----9----9----9----]
a[----7----6----7----]
e[----0----0----5----]

Chorus

Im, im in love with you im in love with you im in love im in love im in love with you

e[----0----0----x----]
b[----0----0----x----]
g[----9----9----x----] 
d[----9----9----9----]
a[----7----6----7----]
e[----0----0----5----]

Verse 1
[ Tab from: http://www.guitartabs.cc/tabs/c/clemency/come_around_tab.html ]
I cant function my life is helpless without you. But when I call on you your there for
me, your there for me. I cant get away, I can not escape I look all around all around
your beauty surrounds me.

e[----0----0----x----0----0----x----]
b[----0----0----x----0----0----x----]
g[----9----9----x----9----9----x----] 
d[----9----9----9----9----9----9----]
a[----7----6----7----7----6----7----]
e[----0----0----5----0----0----5----]

Chorus

I im in love with you, im in love with you im in love im in love im in love with you 

e[----0----0----x----]
b[----0----0----x----]
g[----9----9----x----] 
d[----9----9----9----]
a[----7----6----7----]
e[----0----0----5----]


Ending

Im incomplete, im left undone without you please finish me

e[----0----0----x----]
b[----0----0----x----]
g[----9----9----x----] Only strum each cord once, just listen to it 
d[----9----9----9----]
a[----7----6----7----]
e[----0----0----5----]


If you have any question IM me PoeticUmbrellas on AIM
Comments