Clearwater Revival Creedence - Who'll Stop The Rain Chords & Tabs

 

Who'll Stop The Rain Chords & Tabs

Clearwater Revival Creedence Chords & Tabs

Version: 1 Type: Tab 3 ratings
1 star 2 stars 3 stars 4 stars 5 stars
comments

Who'll Stop The Rain Tab

   
Artist: Creedence Clearwater Revival
Song: Who’ll Stop the Rain
 I had to get part of the solo from GWA corrections? E-mail me at bobity_bob612@yahoo.com 
Strum pattern= down up down up.  (see bottom for key)                                                            
Intro: (0:00)                                                      
    G                                      D   Em
E---3---------------------|----------------2-|-0------------------------|
B---0---------------------|----------------3-|-0------------------------|
G-4-0---------------------|----------------2-|-0------------------------|
D-4-0--/--/--/-/--/--/--/-|-/--/--/--/--/--0-|-2--/--/--/-/--/--/--/----|
A---2--|--|--|-|--|--|--|-|-|--|--|--|--|--0-|-2--|--|--|-|--|--|--|----|
E---3--|--|--|-|--|--|--|-|-|--|--|--|--|--|-|-0--|--|--|-|--|--|--|----|
    |__|__|__| |__|__|__|   |__|__|__|  |  |   |__|__|__| |__|__|__|

                  D   G
E-----------------2-|-3----------------------|--------------------------|
B-----------------3-|-0----------------------|--------------------------|
G-----------------2-|-0----------------------|--------------------------|
D-/--/--/--/--/---0-|-0--/--/--/--/--/--/--/-|-/--/--/--/-/--/--/--/----|
A-|--|--|--|--|---0-|-2--|--|--|--|--|--|--|-|-|--|--|--|-|--|--|--|----|
E-|--|--|--|--|---|-|-3--|--|--|--|--|--|--|-|-|--|--|--|-|--|--|--|----|
  |__|__|__|  |   |   |__|__|__|  |__|__|__|   |__|__|__| |__|__|__|

Verses: (0:12,0:45,1:28)
  G                                   C	G
E-3---------------|-----------------|-0-------------0-|-3---------------|
B-0---------------|---------------0-|-1-------------0-|-0---------------|
G-0---------------|---------------0-|-0-------------0-|-0---------------|
D-0-/-/-/-/-/-/-/-|-/-/-/-/-/-/-/-0-|-2-/-/-/-/-/-/-0-|-0-/-/-/-/-/-/-/-|
A-2-|-|-|-|-|-|-|-|-|-|-|-|-|-|-|-0-|-3-|-|-|-|-|-|-0-|-2-|-|-|-|-|-|-|-|
E-3-|-|-|-|-|-|-|-|-|-|-|-|-|-|-|-3-|-|-|-|-|-|-|-|-3-|-3-|-|-|-|-|-|-|-|
  |_|_|_| |_|_|_|   |_|_|_| |_|_|_|   |_|_|_| |_|_|_|   |_|_|_| |_|_|_|

                                      C                 G
E-----------------|---------------0-|-0-------------0-|-3-------------0-|
B-----------------|---------------0-|-1-------------0-|-0-------------0-|
G-----------------|---------------0-|-0-------------0-|-0-------------0-|
D-/-/-/-/-/-/-/-/-|-/-/-/-/-/-/-/-0-|-2-/-/-/-/-/-/-0-|-0-/-/-/-/-/-/-0-|
A-|-|-|-|-|-|-|-|-|-|-|-|-|-|-|-|-0-|-3-|-|-|-|-|-|-0-|-2-|-|-|-|-|-|-0-|
E-|-|-|-|-|-|-|-|-|-|-|-|-|-|-|-|-3-|-|-|-|-|-|-|-|-3-|-3-|-|-|-|-|-|-3-|
  |_|_|_| |_|_|_|   |_|_|_| |_|_|_|   |_|_|_| |_|_|_|   |_|_|_| |_|_|_|

Chorus:  (0:28,1:00,1:45)
  C                 G                 C                 D             #
E-0-------------0-|-3-------------0-|-0-------------0-|-2-------------0-|
B-1-------------0-|-0-------------0-|-1-------------0-|-3-------------0-|
G-0-------------0-|-0-------------0-|-0-------------0-|-2-------------0-|
D-2-/-/-/-/-/-/-0-|-0-/-/-/-/-/-/-0-|-2-/-/-/-/-/-/-0-|-0-/-/-/-/-/-/-0-|
A-3-|-|-|-|-|-|-|-|-2-|-|-|-|-|-|-|-|-3-|-|-|-|-|-|-|-|-0-|-|-|-|-|-|-|-|
E-|-|-|-|-|-|-|-|-|-3-|-|-|-|-|-|-|-|-|-|-|-|-|-|-|-|-|-|-|-|-|-|-|-|-|-|
  |_|_|_| |_|_|_|   |_|_|_| |_|_|_|   |_|_|_| |_|_|_|   |_|_|_| |_|_|_|

   Em                 G                 
E--0--------------0-|-3----------------|------------------| Back to 
B--0--------------0-|-0----------------|------------------| Verses: play 
G--0--------------0-|-0----------------|------------------| to here an- 
D--2-/-/-/--/-/-/-0-|-0-/-/-/--/-/-/-/-|-/-/-/-/--/-/-/-/-| other time
A--2-|-|-|--|-|-|-|-|-2-|-|-|--|-|-|-|-|-|-|-|-|--|-|-|-|-|
E--0-|-|-|--|-|-|-|-|-3-|-|-|--|-|-|-|-|-|-|-|-|--|-|-|-|-|
   |_|_|_|  |_|_|_|   |_|_|_|  |_|_|_|   |_|_|_|  |_|_|_|
[ Tab from: http://www.guitartabs.cc/tabs/c/clearwater_revival_creedence/wholl_stop_the_rain_tab.html ]
Solo thing: (1:18)
  C     G        D                      Am    C       Em              D   
  >     >/\      >- - - - - - - - - -|  >     >/\      >- - - - - - | >
E-0-----3-(3)----2-|-2-------------0-|-0-0---0-(0)-0--0-|-0-----------2-|
B-1---0-0-(0)-0--3-|-3-------------0-|-1-1---1-(1)-1--0-|-0-----------3-|
G-0---0-0-(0)-0--2-|-|-------------|-|-2-2---0-(0)-0--0-|-|-----------2-|
D-2-/-|-0-(0)-0--0-|-|-/-/-/-/-/-/-|-|-2-|-2-2-(2)-|--2-|-|-/-/-/-/-/-0-|
A-3-|-|-2-(2)-|--0-|-|-|-|-|-|-|-|-|-|-0-|-0-3-(3)-|--2-|-|-|-|-|-|-|-0-|
E-|-|-|-3-(3)-|--|-|-|-|-|-|-|-|-|-|-|-|-|-|-|--|--|--0-|-|-|-|-|-|-|-|-|
  |_|_|_|  |__|  |   |_|_|_| |_|_|_|   |_|_|_|  |__|  |   |_|_|_| |_| |

  G                                 Back to verses: play to # skip to ==
E-3---------------------------------|-----------------------------------|
B-0---------------------------------|-----------------------------------|
G-0---------------------------------|-----------------------------------|
D-0----/----/----/-/----/----/----/-|-/----/----/----/-/----/----/----/-|
A-2----|----|----|-|----|----|----|-|-|----|----|----|-|----|----|----|-|
E-3----|----|----|-|----|----|----|-|-|----|----|----|-|----|----|----|-|
  |____|____|____| |____|____|____|   |____|____|____| |____|____|____|

== (1:57)_________________           	(2:00)
   Em  _/                 \_                G         
E-----(0)---------------|-(0)-----------||--3---------------------------|
B-----(0)---------------|-(0)-----------||--0---------------------------|
G-----(0)---------------|-(0)-----------||.-0---------------------------|
D-----(2)---------------|-(2)-----------||.-0---/---/---/--/---/---/---/|
A-----(2)---------------|-(2)-----------||--2---|---|---|--|---|---|---||
E-----(0)---------------|-(0)-----------||--3---|---|---|--|---|---|---||
                                           |___|___|___|  |___|___|___|
                                                       play 3x and fade	
                             D   Em                                D    
E----------------------------2-|-0---------------|-----------------2---||
B----------------------------3-|-0---------------|-----------------3---||
G----------------------------2-|-0---------------|-----------------2--.||
D--/--/--/--/-/--/--/--/--/--0-|-2-/-/-/-/-/-/-/-|-/-/-/-/--/--/---0--.||
A--|--|--|--|-|--|--|--|--|--0-|-2-|-|-|-|-|-|-|-|-|-|-|-|--|--|---0---||
E--|--|--|--|-|--|--|--|--|--|-|-0-|-|-|-|-|-|-|-|-|-|-|-|--|--|---|---||
   |__|__|__| |__|__|__|  |  |   |_|_|_| |_|_|_|   |_|_|_|  |__|   |
____________________________________________________
|  _            	|
| ( )           		 - - - - -|= let ring       |   G – [320003]
| ( )                                               |   C – [X32010]
| ( ) = half note        /                          |   D – [X00232] 
| ( )                    |                          |  Em – [022000]
| ( )                    | = repeat previous strum  |  Am – [X02210]
| (_)                    |                          |
|                                                   |	
| ( )                                               |
| ( )                    > = accentuate             |
| ( ) = do not                                      |
| ( )   rearticulate                                |
| ( )                             _____             |
| ( )                    /\ -or- /     \ = slur/tie |
|___________________________________________________|                                                   
                 



Lyrics:
long as I remember the rain been comin’ down
clouds of mystery pourin’ confusion on the ground

Chorus:

Good men through the ages tryin’ to find the sun
And I wonder still I wonder who’ll stop the rain 

I went down Virginia seekin’ shelter from the storm
Caught up in the fable I watched the tower grow

Five year plans and new deals wrapped in golden chains
And I wonder still I wonder who’ll stop the rain

(Solo thingy)

Heard the singers playin’ how we cheered for more
The crowd had rushed together tryin’ to keep warm

Still the rain kept pourin’ fallin’ on my ears
And I wonder still I wonder who’ll stop the rain
Comments