Clay Mistler - Summertime Blues Chords & Tabs

 

Summertime Blues Chords & Tabs

Clay Mistler Chords & Tabs

Version: 1 Type: Tab 0 ratings
1 star 2 stars 3 stars 4 stars 5 stars
comments

Summertime Blues Tab

Artist:Clay Mistler
Song: Summer Time Blues "Riff"

This is a song I play whenever I'm bored and usually make most of it 
up as I go but for the most part it goes like this

key:p=pull off
    ~=bend

---------7-9-10p9-7-10p9-7------7-9-10p9-7-10p9-7-77-9-10-12-12--10-10
-----7-9--------------------7-9---------------------------------------
----------------------------------------------------------------------
----------------------------------------------------------------------
----------------------------------------------------------------------
----------------------------------------------------------------------
[ Tab from: http://www.guitartabs.cc/tabs/c/clay_mistler/summertime_blues_tab.html ]
--12-12-10-10-12-12-10-10-10-9-7--7-9-7-------------------------------
-----------------------------------------7--77--5~---5-7--------------
----------------------------------------------------------7~--99-99-9~
----------------------------------------------------------------------
----------------------------------------------------------------------
----------------------------------------------------------------------

0-23-5-5~-5-7-9~-9-10-9-7-5-------------------------------------------
-----------------------------7~---9-7-9-10~-12~--13~------------------
----------------------------------------------------------------------
----------------------------------------------------------------------
----------------------------------------------------------------------
----------------------------------------------------------------------

Well Thats' It!
hope you like it
Comments