Clay - Peer Pressure Chords & Tabs

 

Peer Pressure Chords & Tabs

Clay Chords & Tabs

Version: 2 Type: Tab 0 ratings
1 star 2 stars 3 stars 4 stars 5 stars
comments

Peer Pressure Tab

   
Song: Peer Pressure
Artist: Clay?
Tunning: Droped D     D-A-D-G-B-e
Written and tabbed by: Clay Smith

			Intro. x4
G---------------------------------------|
D---------------------------------------|
A---------------------------------------|
D--2-2-2--5-5-5--7-7-7--3--5-5-5--------|

			Chorus x4
e---------------------------------------|
B---------------------------------------|
G-2-2-2--5-5-5--7-7-7--3--5-5-5---------|
D-2-2-2--5-5-5--7-7-7--3--5-5-5---------|
A-2-2-2--5-5-5--7-7-7--3--5-5-5---------|
D-2-2-2--5-5-5--7-7-7--3--5-5-5---------|

			Verse x2
e------------------------------------------------------------------------------------------|
B------------------------------------------------------------------------------------------|
G-2---2-2-2--2-2-2--2-2--5---5-5-5--5-5-5--5-5--7---7-7-7--7-7-7--7-7--7-3-5--5--7-3-5--5--|
D-2---2-2-2--2-2-2--2-2--5---5-5-5--5-5-5--5-5--7---7-7-7--7-7-7--7-7--7-3-5--5--7-3-5--5--|
A-2---2-2-2--2-2-2--2-2--5---5-5-5--5-5-5--5-5--7---7-7-7--7-7-7--7-7--7-3-5--5--7-3-5--5--|
D-2---2-2-2--2-2-2--2-2--5---5-5-5--5-5-5--5-5--7---7-7-7--7-7-7--7-7--7-3-5--5--7-3-5--5--|
[ Tab from: http://www.guitartabs.cc/tabs/c/clay/peer_pressure_tab_ver_2.html ]
			Bridge
e------------------------------------------------------------------------------------------|
B------------------------------------------------------------------------------------------|
G-3-3-3-3-3-3-3-3--5-5-5-5-5-5-5-5--7-x-x-x-x-x-x-x--7-x--3-x--5-x-2-x-x-x-----------------|
D-3-3-3-3-3-3-3-3--5-5-5-5-5-5-5-5--7-x-x-x-x-x-x-x--7-x--3-x--5-x-2-x-x-x-----------------|
A-3-3-3-3-3-3-3-3--5-5-5-5-5-5-5-5--7-x-x-x-x-x-x-x--7-x--3-x--5-x-2-x-x-x-----------------|
D-3-3-3-3-3-3-3-3--5-5-5-5-5-5-5-5--7-x-x-x-x-x-x-x--7-x--3-x--5-x-2-x-x-x-----------------|

			Bridge Verse x 4
e------------------------------------------------------------------------------------------|
B------------------------------------------------------------------------------------------|
G-7-7-7-7-7-7-7-7--3-3-3-3-3-3-3-3--5-5-5-5-5-5-5-5-2-2-2-2-2-2-2-2------------------------|
D-7-7-7-7-7-7-7-7--3-3-3-3-3-3-3-3--5-5-5-5-5-5-5-5-2-2-2-2-2-2-2-2------------------------|
A-7-7-7-7-7-7-7-7--3-3-3-3-3-3-3-3--5-5-5-5-5-5-5-5-2-2-2-2-2-2-2-2------------------------|
D-7-7-7-7-7-7-7-7--3-3-3-3-3-3-3-3--5-5-5-5-5-5-5-5-2-2-2-2-2-2-2-2------------------------|

			Outro
G--------------------------------|
D--------------------------------|
A--------------------------------| x3 times
D-2-2-2--5-5-5--7-7-7--3--5-5-5--|

G-----------------------------------------------------------------------------------2-2-2--|
D-----------------------------------------------------------------------------------2-2-2--|
A-----------------------------------------------------------------------------------2-2-2--|
D--2-2-2--5-5-5--7-7-7-7-7-7-7-7--3-3-3-3-3-3-3-3--5-5-5-5-5-5-5-5--2-2-2-2---2-2-2--------|
			Order:
		                   Intro.
			Chorus
			Verse
			Chorus
			Verse
			Chorus
			Bridge
			Bridge Verse
			Chorus
			Verse
			Outro.

	Thats it. I think it is easy to play but then again I wrote it.
	If you have any questions or comments about this tab e-mail me at:
	claymation2000@juno.com
Comments