Claude Sirois - Pour Un Instant Chords & Tabs

 

Pour Un Instant Chords & Tabs

Claude Sirois Chords & Tabs

Version: 1 Type: Tab 0 ratings
1 star 2 stars 3 stars 4 stars 5 stars
comments

Pour Un Instant Tab

pour un instant tab by claude sirois



|------2----0-2--------------0---2----0------0------2----0---------------|
|-----------------3-----3---------------0------0------0----2-------------|
|---2----2------------2---2----2---2------0------0-----------2---2----2--|
|-0-------------0---0------------------------------------------2---------|
|--------------------------------------------------------0----------4----|
|-------------------------------------0------0---------------------------|

|------2----0-2--------------0---2----0------0------2----0---------------|
|-----------------3-----3---------------0------0------0----2-------------|
|---2----2------------2---2----2---2------0------0-----------2---2----2--|
|-0-------------0---0------------------------------------------2---------|
|--------------------------------------------------------0----------4----|
|-------------------------------------0------0---------------------------|

|------2---0-2------3------3----2-3\5-5-----5------7/--------------------|
|--------------3------3------3----------2-----2---------3----3---3----3--|
|---2----2-------2------0-----------------2-----2------------------------|
|-0------------------------------------------------------------0---------|
|----------------------------------------------------------2-------2-----|
|-------------------0------0----------2---------------3------------------|

|------2---0-2------3------3----2-3\5-5-----5------7/--------------------|
|--------------3------3------3----------2-----2-------3-----3--0---------|
|---2----2-------2------0-----------------2-----2-------0--------2-------|
|-0-------------------------------------------------------0--------------|
|------------------------------------------------------------------------|
|-------------------0------0----------2---------------3------------------|

|-0-----0------2--------------------2-----2---3-2----0-----0------------|
|---2-----2------2--3-----3---0-3-----0-----0-----3----2-------0--------|
|-----2-----2---------0-----0-----0-----0----------------2-------2------|
|-----------------------0-----------------------------------------------|
|-0---------------------------------2----------------0------------------|
|-------------------3---------------------------------------------------|

|-0------0------2--------------------2-----2---3-2---0---------------|
|---2------2------2--3-----3---0-3-----0-----0-----3---2-------------|
|-----2------2---------0-----0-----0-----0---------------2---2----2--|
|------------------------0---------------------------------2---------|
|-0----------------------------------2---------------0----------4----|
|--------------------3-----------------------------------------------|


|------2----0-2--------------0---2----0------0------2----0---------------|
|-----------------3-----3---------------0------0------0----2-------------|
|---2----2------------2---2----2---2------0------0-----------2---2----2--|
|-0-------------0---0------------------------------------------2---------|
|--------------------------------------------------------0----------4----|
|-------------------------------------0------0---------------------------|
[ Tab from: http://www.guitartabs.cc/tabs/c/claude_sirois/pour_un_instant_tab.html ]
|------2----0-2--------------0---2----0------0------2----0---------------|
|-----------------3-----3---------------0------0------0----2-------------|
|---2----2------------2---2----2---2------0------0-----------2---2----2--|
|-0-------------0---0------------------------------------------2---------|
|--------------------------------------------------------0----------4----|
|-------------------------------------0------0---------------------------|

|------2---0-2------3------3----2-3\5-5-----5------7/--------------------|
|--------------3------3------3----------2-----2---------3----3---3----3--|
|---2----2-------2------0-----------------2-----2------------------------|
|-0------------------------------------------------------------0---------|
|----------------------------------------------------------2-------2-----|
|-------------------0------0----------2---------------3------------------|

|------2---0-2------3------3----2-3\5-5-----5------7/--------------------|
|--------------3------3------3----------2-----2-------3-----3--0---------|
|---2----2-------2------0-----------------2-----2-------0--------2-------|
|-0-------------------------------------------------------0--------------|
|------------------------------------------------------------------------|
|-------------------0------0----------2---------------3------------------|

|-0-----0------2--------------------2-----2---3-2----0-----0------------|
|---2-----2------2--3-----3---0-3-----0-----0-----3----2-------0--------|
|-----2-----2---------0-----0-----0-----0----------------2-------2------|
|-----------------------0-----------------------------------------------|
|-0---------------------------------2----------------0------------------|
|-------------------3---------------------------------------------------|

|-0------0------2--------------------2-----2---3-2---0---------------|
|---2------2------2--3-----3---0-3-----0-----0-----3---2-------------|
|-----2------2---------0-----0-----0-----0---------------2---2----2--|
|------------------------0---------------------------------2---------|
|-0----------------------------------2---------------0----------4----|
|--------------------3-----------------------------------------------|

|------2----0-2--------------0---2----0------0------2----0---------------|
|-----------------3-----3---------------0------0------0----2-------------|
|---2----2------------2---2----2---2------0------0-----------2---2----2--|
|-0-------------0---0------------------------------------------2---------|
|--------------------------------------------------------0----------4----|
|-------------------------------------0------0---------------------------|

|------2----0-2--------------0---2----0------0------2----0-----0-----------|
|-----------------3-----3---------------0------0------0----2-----2----3----|
|---2----2------------2---2----2---2------0------0-----------2-----2----2--|
|-0-------------0---0------------------------------------------------------|
|--------------------------------------------------------0-----------------|
|-------------------------------------0------0-----------------------------|

|------3----2-0-----------5----------------|
|---------------3--------3-----------------|
|---2----2--------2-----2------------------|
|-0--------------------0-------------------|
|------------------------------------------|
|------------------------------------------|



steve,,              pompom@sympatico.ca
Comments