Claude Sirois - Le Gout De Leau Chords & Tabs

 

Le Gout De Leau Chords & Tabs

Claude Sirois Chords & Tabs

Version: 1 Type: Tab 0 ratings
1 star 2 stars 3 stars 4 stars 5 stars
comments

Le Gout De Leau Tab

 
    Le gout de l'eau, arrangements pour guitare, par Claude Sirois,  

                     guitariste Québécois.
    
   Guitar classique.  Traduit en tablature par steve morin.      


|------------2p0----------|-------------2p0----------|
|-------3----------3----3-|--------3----------3----3-|
|-----0---0------0----0---|------0---0------0----0---|
|-------------------------|--------------------------|
|-2h3---------------------|--------------------------|
|-------------------------|-2h3----------------------|

|------------2p0-------------|--0--------------------|
|-------3----------3----3----|----0---0--3--------0--|
|-----0---0------0----0----0-|------0------2---2-----|
|----------------------------|---------------0-------|
|-2h3------------------------|-----------------------|
|----------------------------|--0--------2--------3--|

|------------2p0------------|------------2p0----------|
|-------3----------3----3---|--------3---------3----3-|
|-----0---0------0----0-----|------0---0-----0----0---|
|---------------------------|-------------------------|
|-2h3-----------------------|-------------------------|
|---------------------------|-2h3---------------------|

|------------2p0-------------|--0--------------------|
|-------3----------3----3----|----0---0--3--------0--|
|-----0---0------0----0----0-|------0------2---2-----|
|----------------------------|---------------0-------|
|-2h3------------------------|-----------------------|
|----------------------------|--0--------2--------3--|

|--------------------------|--------------------|
|--------------------------|--------------------|
|------0-0-------0-0-0-----|-0-0-0-----0-0------|
|--4h5-------2p0-------2p0-|-------2p0------0---|
|--3-----3-------3---3-----|--------------------|
|--------------------------|-3---3-----3----3---|

|----------------------|------------------------|
|----------------------|-----0----0-------------|
|------0-0-------0-0-0-|------------2----0------|
|--4h5------2p0--------|-0h2----2------0---0----|
|--3-----3-------3---3-|-----0------------------|
|----------------------|------------2--------3--|

|--------------------------|--------------------|
|--------------------------|--------------------|
|------0-0-------0-0-0-----|-0-0-0-----0-0------|
|--4h5-------2p0-------2p0-|-------2p0------0---|
|--3-----3-------3---3-----|--------------------|
|--------------------------|-3---3-----3----3---|

|----------------------|------------------------|
|----------------------|-----0----0-------------|
|------0-0-------0-0-0-|------------2----0------|
|--4h5------2p0--------|-0h2----2------0---0----|
|--3-----3-------3---3-|-----0------------------|
|----------------------|------------2--------3--|

|---------------------------|------------------------|
|-a-1-1-1------1-1--a-1-----|-a-3--1-0-------0-------|
|-m-0------2-0------m-0--0--|-m-0------2-0-2-0--0----|
|-i-2---------------i-2-----|-i-0-----------------0--|
|-p-3---------------p-3-----|------------------------|
|---------------------------|-p-3--------------------|

|----------------------------|
|-a-1-1-1------a-1-1-a-1--0--|
|-m-0------2-0-m-0---m-0-----|
|-i-2----------i-2---i-2-----|
|-p-3----------p-3---p-3--0--|
|----------------------------|

|---------------------------------|
|---------------------0-----------|
|-2-------2-----2--0-------0------|
|---2---2-----0----------0---0----|
|-0---0---------------------------|
|-----------2---------3--------3--|
[ Tab from: http://www.guitartabs.cc/tabs/c/claude_sirois/le_gout_de_leau_tab.html ]
|------------2p0----------|-------------2p0----------|
|-------3----------3----3-|--------3----------3----3-|
|-----0---0------0----0---|------0---0------0----0---|
|-------------------------|--------------------------|
|-2h3---------------------|--------------------------|
|-------------------------|-2h3----------------------|

|------------2p0-------------|--0--------------------|
|-------3----------3----3----|----0---0--3--------0--|
|-----0---0------0----0----0-|------0------2---2-----|
|----------------------------|---------------0-------|
|-2h3------------------------|-----------------------|
|----------------------------|--0--------2--------3--|

|------------2p0------------|------------2p0----------|
|-------3----------3----3---|--------3---------3----3-|
|-----0---0------0----0-----|------0---0-----0----0---|
|---------------------------|-------------------------|
|-2h3-----------------------|-------------------------|
|---------------------------|-2h3---------------------|

|------------2p0-------------|--0--------------------|
|-------3----------3----3----|----0---0--3--------0--|
|-----0---0------0----0----0-|------0------2---2-----|
|----------------------------|---------------0-------|
|-2h3------------------------|-----------------------|
|----------------------------|--0--------2--------3--|

|--------------------------|--------------------|
|--------------------------|--------------------|
|------0-0-------0-0-0-----|-0-0-0-----0-0------|
|--4h5-------2p0-------2p0-|-------2p0------0---|
|--3-----3-------3---3-----|--------------------|
|--------------------------|-3---3-----3----3---|

|----------------------|------------------------|
|----------------------|-----0----0-------------|
|------0-0-------0-0-0-|------------2----0------|
|--4h5------2p0--------|-0h2----2------0---0----|
|--3-----3-------3---3-|-----0------------------|
|----------------------|------------2--------3--|

|--------------------------|--------------------|
|--------------------------|--------------------|
|------0-0-------0-0-0-----|-0-0-0-----0-0------|
|--4h5-------2p0-------2p0-|-------2p0------0---|
|--3-----3-------3---3-----|--------------------|
|--------------------------|-3---3-----3----3---|

|----------------------|------------------------|
|----------------------|-----0----0-------------|
|------0-0-------0-0-0-|------------2----0------|
|--4h5------2p0--------|-0h2----2------0---0----|
|--3-----3-------3---3-|-----0------------------|
|----------------------|------------2--------3--|

|---------------------------|------------------------|
|-a-1-1-1------1-1--a-1-----|-a-3--1-0-------0-------|
|-m-0------2-0------m-0--0--|-m-0------2-0-2-0--0----|
|-i-2---------------i-2-----|-i-0-----------------0--|
|-p-3---------------p-3-----|------------------------|
|---------------------------|-p-3--------------------|

|----------------------------|
|-a-1-1-1------a-1-1-a-1--0--|
|-m-0------2-0-m-0---m-0-----|
|-i-2----------i-2---i-2-----|
|-p-3----------p-3---p-3--0--|
|----------------------------|

|---------------------------------|
|---------------------0-----------|
|-2-------2-----2--0-------0------|
|---2---2-----0----------0---0----|
|-0---0---------------------------|
|-----------2---------3--------3--|

|------------2p0----------|-------------2p0----------|
|-------3----------3----3-|--------3----------3----3-|
|-----0---0------0----0---|------0---0------0----0---|
|-------------------------|--------------------------|
|-2h3---------------------|--------------------------|
|-------------------------|-2h3----------------------|

|------------2p0-------------|--0--------------------a-3-|
|-------3----------3----3----|----0---0--3-----------m-3-|
|-----0---0------0----0----0-|------0------2---------i-0-|
|----------------------------|---------------0-----------|
|-2h3------------------------|---------------------------|
|----------------------------|--0--------2------(3)--3---|




steve,,,,    pompom@sympatico.ca
Comments