Claude Sirois - Fait Du Feu Dans La Chemine Chords & Tabs

 

Fait Du Feu Dans La Chemine Chords & Tabs

Claude Sirois Chords & Tabs

Version: 1 Type: Tab 0 ratings
1 star 2 stars 3 stars 4 stars 5 stars
comments

Fait Du Feu Dans La Chemine Tab

fait du feu dans la cheminée tab by claude sirois


    guitar classique    veuillez accorder votre MI bourdon en RE bourdon

|--------0----2---2--3--2---3--2-----2--3--2---3---2--------------------|
|---3------3----3---------3------3-----------3---3---3---3------3-------|
|-----2----------------------------2-------------------2------2---2-----|
|--------------------------------------------------------------------0--|
|-----------------------------------------------------------------------|
|-------------0---------0------0-----------0-------0--------------------|

|-----------------0--2------2------2-----2-------|
|---3-3-3---3-3-3------3------3------3-----3-----|
|--2-------2-------------2------2------------2---|
|-0-------0-----------------0------------0-------|
|------------------------------------------------|
|--------------------0-------------0-------------|

|-----------------0--0------0------0----0--------|
|---3-3-3---3-3-3------2------2------2----2------|
|--2-------2-------------2------2-----------2----|
|-0-------0-----------------0-----------0--------|
|--------------------0-------------0-------------|
|------------------------------------------------|

|--------------------0------0-----0----0---------|
|---2-2-2---2-2-2-3----2------2-----2----2-------|
|--2-------2-------------2------2----------2-----|
|-2-------2-----------------0----------0---------|
|--------------------0------------0--------------|
|------------------------------------------------|

|------------------------------------------------|
|---2-2-2---2-2-2-3--3------3------3------3------|
|--2-------2-----------2------2------2---2-------|
|-2-------2--------------0------0-------0--------|
|------------------------------------------------|
|--------------------0---------------------------|

|----2-2-2---2-2-2-3\5--5------5------5-------5--|
|---3-------3-------------7------7------7----7---|
|--2-------2----------------7------7--------7----|
|-0---------------------0------------------0-----|
|------------------------------------------------|
|------------------------------------------------|

|------------------------------------------------|
|---7-7-7---7-7-7-8--8------8-----8-------8------|
|--7-------7-----------9------9-----9----9-------|
|-0-------0--------------9------9-------9--------|
|--------------------7-----------------7---------|
|------------------------------------------------|

|------0-0-2-3------3------3--------3----|
|-----0--------2------2------2-----2-----|
|----0-----------2------2---------2------|
|---0------------------------------------|
|--2---------0------------------0--------|
|-2--------------------------------------|

|----0-0-0---0-0-0----2-----3---2-0---0h2------|
|---2-------2------3----3-----3-----3-----3----|
|--2-------2--------------2-----------------2--|
|-2-------------------0------------------------|
|----------------------------------------------|
|----------------------------------------------|

|--------0----2---2--3--2---3--2-----2--3--2------------|
|---3------3----3---------3------3-----------3---3------|
|-----2----------------------------2-----------2--------|
|-------------------------------------------------------|
|-------------------------------------------------------|
|-------------0---------0------0-----------0------------|

|-0--------------------------------0---0-2-0---2-0-----0-2-0-------|
|---2----------------------2---3-----2-------2-----2---------2---2-|
|-----2---2---2-------2------2---2-------------------2---------2---|
|-------2---2---2---2---2------------------------------------------|
|-0---------------0----------------0-------0-----0---------0-------|
|------------------------------------------------------------------|

|--------------------------|
|-3-----3------3-----------|
|---2--------2---2---2-----|
|-0---0------------4-------|
|--------------------------|
|--------------------------|

|--------0----2---2--3--2---3--2-----2--3--2------------|
|---3------3----3---------3------3-----------3---3------|
|-----2----------------------------2-----------2--------|
|-------------------------------------------------------|
|-------------------------------------------------------|
|-------------0---------0------0-----------0------------|

|-0--------------------------------0---0-2-0---2-0-----0-2-0-------|
|---2----------------------2---3-----2-------2-----2---------2---2-|
|-----2---2---2-------2------2---2-------------------2---------2---|
|-------2---2---2---2---2------------------------------------------|
|-0---------------0----------------0-------0-----0---------0-------|
|------------------------------------------------------------------|

|--------------------------|
|-3-----3------3-----------|
|---2--------2---2---------|
|-0---0------------0-------|
|--------------------------|
|--------------------------|
[ Tab from: http://www.guitartabs.cc/tabs/c/claude_sirois/fait_du_feu_dans_la_chemine_tab.html ]
|-----------------0--2------2------2-----2-------|
|---3-3-3---3-3-3------3------3------3-----3-----|
|--2-------2-------------2------2------------2---|
|-0-------0-----------------0------------0-------|
|------------------------------------------------|
|--------------------0-------------0-------------|

|-----------------0--0------0------0----0--------|
|---3-3-3---3-3-3------2------2------2----2------|
|--2-------2-------------2------2-----------2----|
|-0-------0-----------------0-----------0--------|
|--------------------0-------------0-------------|
|------------------------------------------------|

|--------------------0------0-----0----0---------|
|---2-2-2---2-2-2-3----2------2-----2----2-------|
|--2-------2-------------2------2----------2-----|
|-2-------2-----------------0----------0---------|
|--------------------0------------0--------------|
|------------------------------------------------|

|------------------------------------------------|
|---2-2-2---2-2-2-3--3------3------3------3------|
|--2-------2-----------2------2------2---2-------|
|-2-------2--------------0------0-------0--------|
|------------------------------------------------|
|--------------------0---------------------------|

|----2-2-2---2-2-2-3\5--5------5------5-------5--|
|---3-------3-------------7------7------7----7---|
|--2-------2----------------7------7--------7----|
|-0---------------------0------------------0-----|
|------------------------------------------------|
|------------------------------------------------|

|------------------------------------------------|
|---7-7-7---7-7-7-8--8------8-----8-------8------|
|--7-------7-----------9------9-----9----9-------|
|-0-------0--------------9------9-------9--------|
|--------------------7-----------------7---------|
|------------------------------------------------|

|------0-0-2-3------3------3--------3----|
|-----0--------2------2------2-----2-----|
|----0-----------2------2---------2------|
|---0------------------------------------|
|--2---------0------------------0--------|
|-2--------------------------------------|

|----0-0-0---0-0-0----2-----3---2-0---0h2------|
|---2-------2------3----3-----3-----3-----3----|
|--2-------2--------------2-----------------2--|
|-2-------------------0------------------------|
|----------------------------------------------|
|----------------------------------------------|

|--------0----2---2--3--2---3--2-----2--3--2------------|
|---3------3----3---------3------3-----------3---3------|
|-----2----------------------------2-----------2--------|
|-------------------------------------------------------|
|-------------------------------------------------------|
|-------------0---------0------0-----------0------------|

|-0--------------------------------0---0-2-0---2-0-----0-2-0-------|
|---2----------------------2---3-----2-------2-----2---------2---2-|
|-----2---2---2-------2------2---2-------------------2---------2---|
|-------2---2---2---2---2------------------------------------------|
|-0---------------0----------------0-------0-----0---------0-------|
|------------------------------------------------------------------|

|--------------------------|
|-3-----3------3-----------|
|---2--------2---2---2-----|
|-0---0------------4-------|
|--------------------------|
|--------------------------|

|--------0----2---2--3--2---3--2-----2--3--2------------|
|---3------3----3---------3------3-----------3---3------|
|-----2----------------------------2-----------2--------|
|-------------------------------------------------------|
|-------------------------------------------------------|
|-------------0---------0------0-----------0------------|

|-0--------------------------------0---0-2-0---2-0-----0-2-0-------|
|---2----------------------2---3-----2-------2-----2---------2---2-|
|-----2---2---2-------2------2---2-------------------2---------2---|
|-------2---2---2---2---2------------------------------------------|
|-0---------------0----------------0-------0-----0---------0-------|
|------------------------------------------------------------------|

|--------------------------|
|-3-----3------3-----------|
|---2--------2---2---2-----|
|-0---0------------4-------|
|--------------------------|
|--------------------------|

|-2\--3----5---5-7--5---7--5-----5--7--5--------|
|--3\5-5\7---7--------7------7-----------7---7--|
|------------------------------7-----------7----|
|----------0--------0------0-----------0--------|
|-----------------------------------------------|
|-----------------------------------------------|

|-3------3-3-----2-2-----0-0---------0---2-----3----3-5--3---5--3------|
|---5----5-5-----3-3-----2-2-----------2---2-----2---------2------2----|
|-----4--4-4-----2-2-----2-2----------------------------------------2--|
|----------------------------------------------------------------------|
|-0----------0--------0------------0-----------0---------0------0------|
|----------------------------------------------------------------------|

|-3-5--3-----------------3----2--0---------5-----|
|--------2---2----3----------------3------3------|
|----------2--------2------2---------2---2-------|
|---------------0-----0-----------------0--------|
|------0-----------------------------------------|
|------------------------------------------------|




   steve,,,,,,,,,     pompom@sympatico.ca
Comments