Classified - Just The Way It Is Chords & Tabs

 

Just The Way It Is Chords & Tabs

Classified Chords & Tabs

Version: 1 Type: Tab 0 ratings
1 star 2 stars 3 stars 4 stars 5 stars
comments

Just The Way It Is Tab

I have been looking for the tab to this song for a while...
because I'm lazy.. but when I couldn't find it I just decided
to do it myself... so here ya go.



====================================================================
Song Title:  Just The Way It Is
Artist:  Classified
Tabbed By:  br0dy st3wy
E-Mail:  Insane_Riffs@hotmail.com
====================================================================

[ Tab from: http://www.guitartabs.cc/tabs/c/classified/just_the_way_it_is_tab.html ]
[intro & chorus]
e]-------------------|---------------------------------[
A]-------------------|---------------------------------[
D]--2----------------|--2------------------------------[
G]--2----0-2-3/---5--|--2----0-2-3---/7---5--9-9/10-9--[
B]-------------------|---------------------------------[
E]-------------------|---------------------------------[
(note: must be played on the "G" string to get full sliding effect)


[riff]
e]-----------------------|-------------------------------------[
A]-----------------------|-------------------------------------[
D]-----2-2---------------|-----2-2-----------------------------[
G]--2--2-2---0-2-3/---5--|--2--2-2---0-2-3---/7---5--9-9/10-9--[
B]------^----------------|------^------------------------------[
E]------|----------------|------|------------------------------[
     Upstrokes                 Upstrokes






Questions Comments Corrections?  
Gimmie a shout:  Insane_Riffs@hotmail.com
Comments