Classical - Scott Joplin - The Entertainer Chords & Tabs

 

Scott Joplin - The Entertainer Chords & Tabs

Classical Chords & Tabs

Version: 1 Type: Tab 0 ratings
1 star 2 stars 3 stars 4 stars 5 stars
comments

Scott Joplin - The Entertainer Tab

Song: The Entertainer
By: Scott Joplin
Submitted by: Rudy

http://www.geocities.com/creed989

This song is better known as the "ice-cream-man song". Sounds great
and really fun to play.


e-|-------8---8---8-|-8-10\11-12-8-10-12----10-8-|
B-|-----------------|--------------------12------|
G-|-7h8h9---9---9---|----------------------------|
D-|-----------------|----------------------------|
A-|-----------------|----------------------------|
E-|-----------------|----------------------------|

e-|-------8---8---8-|-----------8-12-10-8--------|
B-|-----------------|-10-8p7-10-----------12-----|
G-|-7h8h9---9---9---|----------------------------|
D-|-----------------|----------------------------|
A-|-----------------|----------------------------|
E-|-----------------|----------------------------|

e-|-------8---8---8-|-8-10\11-12-8-10-12----10-8-|
B-|-----------------|--------------------12------|
G-|-7h8h9---9---9---|----------------------------|
D-|-----------------|----------------------------|
A-|-----------------|----------------------------|
E-|-----------------|----------------------------|

e-|-8-10\11-12-8-10-12-8-10-8-12-8-10-12-8-10-8-12-8-10-12----10-8--|
B-|--------------------------------------------------------12-------|
G-|-----------------------------------------------------------------|
D-|-----------------------------------------------------------------|
A-|-----------------------------------------------------------------|
E-|-----------------------------------------------------------------|
[ Tab from: http://www.guitartabs.cc/tabs/c/classical/scott_joplin_the_entertainer_tab.html ]
e-|-----------------------------12----------------10----------------|
B-|------7h8-10p8------7h8-10p8----13----10p12-13----13-10----------|
G-|-9h10----------9h10----------------12-------------------12-------|
D-|-----------------------------------------------------------------|
A-|-----------------------------------------------------------------|
E-|-----------------------------------------------------------------|

e-|-----------------------------------------------------------------|
B-|------7h8-10p8------7h8-10p8-8h10-11-12-12-12-10------8----------|
G-|-9h10----------9h10------------------------------11\7---10-9-----|
D-|-----------------------------------------------------------------|
A-|-----------------------------------------------------------------|
E-|-----------------------------------------------------------------|

e-|-----------------------------12----------------10-12-10----10----|
B-|------7h8-10p8------7h8-10p8----13----10p12-13----------13----13-|
G-|-9h10----------9h10----------------12----------------------------|
D-|-----------------------------------------------------------------|
A-|-----------------------------------------------------------------|
E-|-----------------------------------------------------------------|

e-|----------------------------------12-15-12-------------10-10----||
B-|----------13-10-13-10-13-10----13----------13----10-13-------13-||
G-|-12p11h12-------------------12----------------12----------------||
D-|----------------------------------------------------------------||
A-|----------------------------------------------------------------||
E-|----------------------------------------------------------------||

-Rudy

http://www.geocities.com/fund_the_break
Comments