Classical - Romance Anonimo Chords & Tabs

 

Romance Anonimo Chords & Tabs

Classical Chords & Tabs

Version: 1 Type: Tab 1 rating
1 star 2 stars 3 stars 4 stars 5 stars
comments

Romance Anonimo Tab

This is a beautiful spanish composition by an anonymous writer.
I dont know how many different kind of versions there is but this is from an swedish guitarist named Roland Bengtsson.
If you listen to the song you can hear the speed in the different pieces.

I hope tou enjot it!!, because i do    :-)

You can E-meil me @ Magnus_L1@hotmail.com if ther´s eny questions



	[--7--7--7--7---5--3--3--2--0--0--3--7----12--12--12--12------]
	[---0--0--0—-0---0--0--0--0--0--0--0--0-----0---0---0---0-----]
	[----0--0--0--0---0--0--0--0--0--0--0--0-----0---0---0---0----]
	[-------------------------------------------------------------]
	[-------------------------------------------------------------]
	[--0--------0---------0--------0-----------0-----------0------]


	[--10---8---8---7---5---5---7---8---7---8---7---11---8---7----]
	[----0---0---5---5---5---5---5---5---7---7---7----7---7---7---]
	[-----0---0---5---5---5---5---5---5---8---8---8----8---8---8--]
	[-------------------------------------------------------------]
	[-------------------------------------------------------------]
	[-----------0-----------0-----------0-----------0-------------]


	[--7---5---3---3---2--0---2---2---2---2---3--2---0------------]
	[---0---0---0---0---0--0---1---1---1---0—--0--0---0----0---0--]
	[----0---0---0---0---0--0---2---2---2---2---2--2---0----0---0-]
	[------------------------------------------------2------------]
	[-------------------------0-----------2----------------2------]
	[--0-----------0------------------------------------------3---]

	[-------------------]
	[---0---0---0-------]
	[----0---0---0------]
	[-------------------]
	[------2------------]
	[--0-------3----0---]


	[--7--7--7--7---5--3--3--2--0--0--3--7----12--12--12--12------]
	[---0--0--0—-0---0--0--0--0--0--0--0--0-----0---0---0---0-----]
	[----0--0--0--0---0--0--0--0--0--0--0--0-----0---0---0---0----]
	[-------------------------------------------------------------]
	[-------------------------------------------------------------]
	[--0--------0---------0--------0-----------0-----------0------]




	[--10---8---8---7---5---5---7---8---7---8---7---11---8---7----]
	[----0---0---5---5---5---5---5---5---7---7---7----7---7---7---]
	[-----0---0---5---5---5---5---5---5---8---8---8----8---8---8--]
	[-------------------------------------------------------------]
	[-------------------------------------------------------------]
	[-----------0-----------0-----------0-----------0-------------]






	[--7---5---3---3---2--0---2---2---2---2---3--2---0------------]
	[---0---0---0---0---0--0---1---1---1---0—--0--0---0----0---0--]
	[----0---0---0---0---0--0---2---2---2---2---2--2---0----0---0-]
	[------------------------------------------------2------------]
	[-------------------------0-----------2----------------2------]
	[--0-----------0------------------------------------------3---]

	[-------------------]
	[---0---0---0-------]
	[----0---0---0------]
	[-------------------]
	[------2------------]
	[--0-------3----0---]





	[--------4--4--4--4--2--0---------------2--5------------------]
	[--0------0--0--0--0--0--0--5--4--4--4---2--2-----------------]
	[----------1--1--1--1--1--1--2--2--2--2---2--2----------------]
	[-----------------------------4--4--4--4----------------------]
	[---------------------------0---------------------------------]
	[-------(0)-------0------------------2------------------------]

[ Tab from: http://www.guitartabs.cc/tabs/c/classical/romance_anonimo_tab.html ]
	[--9--9--9--9--9---11--9--9--7--7--7--9--11--12--12--12-------]
	[---7--7--7--7--7----7--7--9--9--9--9--9---9---9---9---9------]
	[----8--8--8--8--8----8--8--9--9--9--9--9---9---9---9---9-----]
	[-------------------------------------------------------------]
	[-----------9-------------------------------------------------]
	[--7-----------7----------0--------0----------0---------------]


	[--12--11--10--9--9--9--9--7--5---4--4--4--4--5--2------------]
	[----9---9---9--5--5--5--5--5--5---0--0--0--4--4--4-----------]
	[-----9---9---9--6--6--6--6--6--6---1--1--1--2--2--2----------]
	[-------------------------------------------------------------]
	[--------------0------------------0---------------------------]
	[---0-------------------0------------------2------------------]

	
	[--0----------------]
	[---0---0---0-------]
	[----0---0---0------]
	[--2----------------]
	[------2------------]
	[----------3---0----]




	[------------0—2-----4--4--4--4--2--0---------------2--5------]
	[--0--2--4------------0--0--0--0--0--0--5--4--4--4---2--2-----]
	[----------------------1--1--1--1--1--1--2--2--2--2---2--2----]
	[-----------------------------------------4--4--4--4----------]
	[---------------------------------------0---------------------]
	[-----------------0-----------0------------------2------------]


	[--9--9--9--9--9---11--9--9--7--7--7--9--11-----12--12--12----]
	[---7--7--7--7--7----7--7--9--9--9--9--9---9---9--9---9---9---]
	[----8--8--8--8--8----8--8--9--9--9--9--9---9-9----9---9---9--]
	[-------------------------------------------------------------]
	[-----------9-------------------------------------------------]
	[--7-----------7----------0--------0----------0---------------]


	[--12--11--10--9--9--9--9--7--5---4--4--4--4--5--2------------]
	[----9---9---9--5--5--5--5--5--5---0--0--0--4--4--4-----------]
	[-----9---9---9--6--6--6--6--6--6---1--1--1--2--2--2----------]
	[-------------------------------------------------------------]
	[--------------0------------------0---------------------------]
	[---0-------------------0------------------2------------------]

	[--0----------------------------------------------------------]
	[---0---0---0---0---0---0---------0—2h4h3-0-------------------]
	[----0---0---0---0---0---0------------------------------------]
	[--2----------------------------------------------------------]
	[------2-----------2------------------------------------------]
	[----------3---0-------3----0---------------------------------]

	[--7--7--7--7---5--3--3--2--0--0--3--7----12--12--12--12------]
	[---0--0--0—-0---0--0--0--0--0--0--0--0-----0---0---0---0-----]
	[----0--0--0--0---0--0--0--0--0--0--0--0-----0---0---0---0----]
	[-------------------------------------------------------------]
	[-------------------------------------------------------------]
	[--0--------0---------0--------0-----------0-----------0------]




	[--10---8---8---7---5---5---7---8---7---8---7---11---8---7----]
	[----0---0---5---5---5---5---5---5---7---7---7----7---7---7---]
	[-----0---0---5---5---5---5---5---5---8---8---8----8---8---8--]
	[-------------------------------------------------------------]
	[-------------------------------------------------------------]
	[-----------0-----------0-----------0-----------0-------------]


	[--7---5---3---3---2--0---2---2---2---2---3--2---0------------]
	[---0---0---0---0---0--0---1---1---1---0—--0--0---0----0---0--]
	[----0---0---0---0---0--0---2---2---2---2---2--2---0----0---0-]
	[------------------------------------------------2------------]
	[-------------------------0-----------2----------------2------]
	[--0-----------0------------------------------------------3---]

	[--------------------------(12)-----]
	[---0---0---0--------------(12)-----]
	[----0---0---0-------------(12)-----]
	[-----------------------------------]
	[------2----------------------------]
	[--0-------3----0-------------------]
Comments