Classical - Greensleeves Chords & Tabs

 

Greensleeves Chords & Tabs

Classical Chords & Tabs

Version: 2 Type: Tab 0 ratings
1 star 2 stars 3 stars 4 stars 5 stars
comments

Greensleeves Tab

artist: Classic (unknown)
title: Greensleeves
written by: Ori Or Meir

this is a different style of playing greensleeves, and does not sounds like the
original. the basses play the tune, should sound stronger. the melody, played
bstrings 1-3 should sound weaker. to exercise this, play only the basses by the
tempo, and add the melody later. there are some transition positions here, and
they are marked with "T". play them faster, or don't play them at all, since they
are not part of the music, but they sound cool. every time you change HAND
position, i marked it in a box.

note: this is not writen in "real time", and the basses are your time
controlores. play only basses to hear the music, and set the other notes
accordingly.

the part with the G chord (in the end) may sound ugly at first, but when played
in the right tempo it is perfect. if u need help with this part (or any other
part) e-mail me at meirori@bezeqint.net.il



                                      X
e-----|-------0-|-----|-------|-------|-------|-----|-------------|
B---0-|-----0---|---0-|-----0-|-----0-|-----7-|---3-|-----3-----3-|
G-----|---0-----|-----|---0---|-------|---7---|-----|---2-------2-|
D-2---|-5-------|-7---|-9-----|-8-9---|-7-----|-4---|-0-----2-4---|
A-----|---------|-----|-------|-------|-------|-----|-------------|
E-----|---------|-----|-------|-------|-------|-----|-------------|
[ Tab from: http://www.guitartabs.cc/tabs/c/classical/greensleeves_tab_ver_2.html ]
                                          T
e---------|-----------------|-------|-----|-------------|
B-----5---|---1-----1-------|-----4-|---0-|-------------|
G---5---5-|-------0-------0-|---4---|-----|-------------|
D-5-------|-2---2-----1-2---|-4-----|-1---|-------------|
A---------|-----------------|-------|-----|-2-3-2-0-----|
E---------|-----------------|-------|-----|---------3-2-|

                                                                                          T       Y
e-------0-|-----|-------------|-------|-----|-------------|-------|-----0-|---------------|-------|
B-----0---|---0-|-----0-----0-|-----7-|---3-|-----3-----3-|-----5-|-------|-----0-----0---|-------|
G---0-----|-----|---0---------|---7---|-----|---2-------2-|---5---|-------|---2-------2---|-------|
D---------|-7---|-9-----8-9---|-7-----|-4---|-0-----2-4---|-5-----|-4-2---|-1-------1---2-|-------|
A---------|-----|-------------|-------|-----|-------------|-------|-------|-------4-------|-0-----|
E-0-------|-----|-------------|-------|-----|-------------|-------|-------|---------------|---3-2-|

                play this as G chord                          Finish
e-------0-----|---3-----------3---------|                    |------0-|
B-----0---0---|-3---3-------3-----3---3-| go back to spot X, |-----0--|
G---0-------0-|-------4---4-----5---4---| stop at spot Y,    |----0---|
D-------------|-------------------------| and play Em:       |---2----|
A-------------|-------------------------|                    |--2-----|
E-0-----------|---------3---------------|                    |-0------|
Comments