Classical - Beethoven - Fur Elise Chords & Tabs

 

Beethoven - Fur Elise Chords & Tabs

Classical Chords & Tabs

Version: 1 Type: Tab 0 ratings
1 star 2 stars 3 stars 4 stars 5 stars
comments

Beethoven - Fur Elise Tab

          Title:Fur Elise(theme)
          Author:Ludwig van Beethoven
          Arr. Arvin Sarkissian
          E-Mail:look4sites@yahoo.com
          
          E------0---0---0---------------------------------------------
          B--------4---4---0-3-1----------------0----------0--1--------
          G-----------------------2----2-----2-------1---1---------2---
          D--------------------------2-----2-------2---2---------2---2-
          A-----------------------0------3-----------------------------
          E-------------------------------------0-------------0--------
          
          E------0---0---0---------------------------------------------
          B--------4---4---0-3-1----------------0--------1-0---------0-
          G-----------------------2----2-----2-------1--------2----2---
          D--------------------------2-----2-------2---2---------2-----
          A-----------------------0------3--------------------0--------
          E--------------0----------------------0----------------------
          
          E-----------0--------1-0-----------0-------------------------
          B------1-3-------1--------3----0-----3--1--------3-1-0-------
          G--------------0---0---------0---------------2---------------
          D--------------------------------3---------2---2---------2-2-
          A-----------3---------------------------0--------------------
          E-------------------------3----------------------------0-----
          
          E------0---0---0---0---0---0-
          B----------------4---4---4---
          G----------------------------
          D--------2---2---------------
          A----------------------------
          E----------------------------
          
          E------0---0---0---------------------------------------
          B--------4---4---0-3-1----------------0---------1-0----
          G-----------------------2----2-----2-------1---------2-
          D--------------------------2-----2-------2---2-------2-
          A-----------------------0------3---------------------0-
          E-------------------------------------0----------------
          
          Careful of the chords, since they tie in with the arpeggios they
          can be easy to miss. I double spaced them s the chords are distinct
          from the ya know, single notes.
          ------------------------------------------------------------------------
          "I'm not dumb enough to pay for things."- my friend, Billy Martin
          
          Tab books have become awful expensive, and I want to save you the
          grief of purchasing them by submitting tabs. I also encourage
          those who own tab books to copy them onto this site.
          -------------------------------------------------------------------------
          I'd really like to learn the part after this. If anyone knows it,
          please put it up.

===========Beethoven - Für Elise
Submitted By: Chrisitan E. Hansen
EMail: crille123@ofir.dke12-11-12-11-12-7-10-8-5-0-3-5-7---5-7-8---
B--------------------------------6---------
G------------------------------------------
D------------------------------------------
A------------------------------------------
E------------------------------------------

e12-11-12-11-12-7-10-8-5-0-3-5-7---8-7-5---
B--------------------------------6---------
G------------------------------------------
D------------------------------------------
A------------------------------------------
E------------------------------------------

e5-7-8-10-5-13-12-10-5-12-10-8-10-8-6------
B------------------------------------------
G------------------------------------------
D------------------------------------------
A------------------------------------------
E------------------------------------------

e12-11-12-11-12-7-10-8-5-0-3-5-7---5-7-8---
B--------------------------------6---------
G------------------------------------------
D------------------------------------------
A------------------------------------------
E------------------------------------------

e12-11-12-11-12-7-10-8-5-0-3-5-7----8--7--5
B--------------------------------6---------
G------------------------------------------
D------------------------------------------
A------------------------------------------
E------------------------------------------


If you have any corrections, pleace e-mail me on crille123@ofir.dk
[ Tab from: http://www.guitartabs.cc/tabs/c/classical/beethoven_fur_elise_tab.html ]
Comments