Classic - Canon In D Chords & Tabs

 

Canon In D Chords & Tabs

Classic Chords & Tabs

Version: 1 Type: Tab 2 ratings
1 star 2 stars 3 stars 4 stars 5 stars
comments

Canon In D Tab

   
Música Clasica 
Canon en D 

Afina tu guitarra asi:
D A D G B E

                                  
|---------------2------------------|----------------------------------
|-----------3-------------------2--|---------------3---------------2--
|-------2-------------------2------|-----------4---------------2------
|---0-------------------2----------|-------4---------------4----------
|-------------------0--------------|---2------------------------------
|----------------------------------|-------------------4--------------

|----------------------------------|----------------------------------
|---------------0---------------3--|---------------3---------------2--
|-----------0---------------2------|-----------4---------------2------
|-------0---------------4----------|-------5---------------2----------
|----------------------------------|-------------------0--------------
|---5---------------0--------------|---5------------------------------

|---2---------------0--------------|----------------------------------
|---------------3-----------2------|---3---------------2--------------
|-----------2-----------2----------|-----------4---------------2------
|-------0-----------------------2--|-------4-------4-------4-------4--
|-------------------0--------------|---2------------------------------
|---0------------------------------|-------------------4--------------
[ Tab from: http://www.guitartabs.cc/tabs/c/classic/canon_in_d_tab.html ]
|----------------------------------|----------------------------------
|---0------------------------------|---0-----------0---2-----------2--
|-----------0-------2--------------|-----------0---------------2------
|-------0-------0-----------4------|-------0---------------2----------
|-----------------------5-------5--|-------------------0--------------
|---5---------------0--------------|---5------------------------------

|---2---------------0--------------|----------------------------------
|---3-------3-------2-------2------|---3---------------2--------------
|-------2---------------2----------|---4-------4-------2-------2------
|---------------0---------------2--|-------4---------------4-------4--
|-------------------0--------------|---2-----------2------------------
|---0------------------------------|-------------------4--------------


|----------------------------------|----------------------------------
|---0------------------------------|---0-----------0---2-----------2--
|---0-------0-------2--------------|---0-------0-------2-------2------
|-------0-------0---4-------4------|-------0---------------2----------
|-----------------------5-------5--|-------------------0--------------
|---5---------------0--------------|---5------------------------------

|-------------5------------|
|-------------3------------|
|-------------2------------|
|-------------0------------|
|--------------------------|
|-------------0------------|
Comments