Clasknova - Bedbugs Chords & Tabs

 

Bedbugs Chords & Tabs

Clasknova Chords & Tabs

Version: 1 Type: Tab 0 ratings
1 star 2 stars 3 stars 4 stars 5 stars
comments

Bedbugs Tab

          Author/Artist: Clarknova
          Title: Bedbugs
          Album: Host
          Transcribed by: Phil Vanstone
          Email: f_eleven@hotmail.com
          
          This song is in Drop D.
          
          For rythyms, effects, and how many of each chord you play listen to the song.
          
          If you have any corrections or if you know any other Clarknova songs then email me.
          
          -------------|----------------------------------------------------------------
          -------------|----------------------------------------------------------------
          -5--5--5--5--|--10--10--10\8--8--8/13--13--13\12--12--12----------------------
          -3--3--3--3--|---x---x---x-x--x--x--x---x---x--x---x---x----------------------
          -3--3--3--3--|---8---8---8\6--6--6/11--11--11\10--10--10----------------------
          -------------|----------------------------------------------------------------
           Intro        verse                                                           
          
          -------------------------------------|----------------------------------------
          -------------------------------------|----------------------------------------
          ----------6-6-6-6-----------6-6-6-6--|--13-13-13-13-13------------------------
          -3-3-3-3--6-6-6-6--1-1-1-1--6-6-6-6--|---x--x--x--x--x------------------------
          -3-3-3-3--4-4-4-4--1-1-1-1--4-4-4-4--|--11-11-11-11-11------------------------
          -3-3-3-3-----------1-1-1-1-----------|----------------------------------------
           chorus                                                                       
          
          ------------------------------------------------------------------------------
          ------------------------------------------------------------------------------
          -6/8-8-8/10-10-10/12-12-12/13\12-12-------------------------------------------
          ------------------------------------------------------------------------------
          -4/6-6-6/-8--8--8/10-10-10/11\10-10-------------------------------------------
          ------------------------------------------------------------------------------
           fill
[ Tab from: http://www.guitartabs.cc/tabs/c/clasknova/bedbugs_tab.html ]
Comments