Clash - White Riot Chords & Tabs

 

White Riot Chords & Tabs

Clash Chords & Tabs

Version: 3 Type: Bass Tab 0 ratings
1 star 2 stars 3 stars 4 stars 5 stars
comments

White Riot Bass Tab

song: White riot
artist: The Clash
bass tabber: "boldra"at"tiscali.it"
not for commercial use!

INTRO & RIT
----------|    |---------|
----------|    |---------|
--------5-|(X3)|55-/-7---|
4h5-5-5---|    |-------5-|

INTRO PART 2
-----------------------------------|
--77---7--77-77----77--77--77-777--|
77--7---77-----7-77--77--77------7-|
-----------------------------------|

VERSE
{
 -----------------------------------|
 553322-----------------------------|
 ------553322----33333333-----------|
 ------------5533--------33333333---|
[ Tab from: http://www.guitartabs.cc/tabs/c/clash/white_riot_btab_ver_3.html ]
 -----------------------------------|
 ----------223344-------------------|
 --22334455------33333333-----------|
 33----------------------33333333---|

 ----------------------------------|
 ----------------------------------|
 3333333333335-7-------------7-5---|
 ----------------555555555555------|

 ------------------------9-9-99--|
 --------------------------------|
 3333333333335-7-77777777--------|
 --------------------------------|
}

BRIDGE
--------------------------------|
--------------------------------|
------------------55--55--5555--|
5---5---5-------55--55--55----5-|

are you taking order?
-------------------------------|
--7--7---7-7-----7---7---7-77--|
7--7---7-----7-7---7---7-----7-|
-------------------------------|
Comments