Clash - White Man In Hammersmith Palais Chords & Tabs

 

White Man In Hammersmith Palais Chords & Tabs

Clash Chords & Tabs

Version: 1 Type: Tab 0 ratings
1 star 2 stars 3 stars 4 stars 5 stars
comments

White Man In Hammersmith Palais Tab

   
#----------------------------------PLEASE NOTE---------------------------------#
#This file is the author's own work and represents their interpretation of the #
#song. You may only use this file for private study, scholarship, or research. #
#------------------------------------------------------------------------------#

Artist- The Clash
Song  - (White Man) in Hammersmith Palais
Album - The Clash (also available on 'The story of the Clash vol 1'
                  and 'Westway to the World')
Author- Mark Turnbull
E-mail- vedderfanclub@yahoo.co.uk

This is one of the best Clash songs and was written after Joe Strummer 
attended a Reggae allnighter in Hammersmith Palais and turned out to 
be the only white there.


4 BEATS PER BAR

DISTORTED GUITAR, NORMAL TUNING

D= Down stroke (from E to E)
U= Up stroke (from e to E) 

INTRO-  D         E              G			A
[ Tab from: http://www.guitartabs.cc/tabs/c/clash/white_man_in_hammersmith_palais_tab.html ]
     D D D D   D D D D   D U D U D U D U D D   D U D U D U D U D D     
e ||-2-2-2-2---0-0-0-0---3-3-3-3-3-3-3-3-3-3---5-5-5-5-5-5-5-5-5-5--|
B ||-3-3-3-3---0-0-0-0---3-3-3-3-3-3-3-3-3-3---5-5-5-5-5-5-5-5-5-5--|
G ||-2-2-2-2---1-1-1-1---4-4-4-4-4-4-4-4-4-4---6-6-6-6-6-6-6-6-6-6--|
D ||-0-0-0-0---2-2-2-2---5-5-5-5-5-5-5-5-5-5---7-7-7-7-7-7-7-7-7-7--|
A ||-----------2-2-2-2---5-5-5-5-5-5-5-5-5-5---7-7-7-7-7-7-7-7-7-7--|
E ||-----------0-0-0-0---3-3-3-3-3-3-3-3-3-3---5-5-5-5-5-5-5-5-5-5--|


             G             A           
  
     D U D U D U D U D D   D
e ||-3-3-3-3-3-3-3-3-3-3---5----------------------------------------|
B ||-3-3-3-3-3-3-3-3-3-3---5----------------------------------------|
G ||-4-4-4-4-4-4-4-4-4-4---6----------------------------------------|
D ||-5-5-5-5-5-5-5-5-5-5---7----------------------------------------|
A ||-5-5-5-5-5-5-5-5-5-5---7----------------------------------------|
E ||-3-3-3-3-3-3-3-3-3-3---5-let ring-------------------------------|


VERSE 
                                      	Eadgbe
D bar chord on every beat of the bar->  x57775

(i would appreciate a bassist to work out Paul Simonon's bass lines 
 over the verse)

CHORUS

Same as the intro but after Joe Strummer says
 "they have no rhythm...Rock!!", there is a A Bar chord strummed up 
and down quickly which is also used to end the song.

Let me know where i fucked up doing this tab!

"if Adolf Hitler were here today, they'd send a Limousine anyway"
 
 
Comments