Clash - Train In Vain Live Chords & Tabs

 

Train In Vain Live Chords & Tabs

Clash Chords & Tabs

Version: 1 Type: Tab 0 ratings
1 star 2 stars 3 stars 4 stars 5 stars
comments

Train In Vain Live Tab

   
Song-Train in Vain
Artist-The Clash
Guitarists-Mick Jones,Joe Strummer
Tabbed By-smellslikefeet1


Pretty basic song! it soudns wat better live so heres the live tab!!


  cords

    D     A      B#
  |-2-| |---|  |-2-|
  |-3-| |-2-|  |-3-|
  |-2-| |-2-|  |-4-|
  |-0-| |-2-|  |-4-|
  |---| |-0-|  |-2-|
  |---| |---|  |---|

intro
|-----------------------------------|
|-----------------------------------|
|-----------------------------------|
|----7-----7-------7-----7----------|x2
|---0--0-0---0--0----0-0---0--------|You can play it on E string 5th fret too
|-----------------------------------|



You say you stand DAA
by your man DDAA
Tell me something DAA
I don't understand DAA
 D strum              Bm strum
You said you loved me, and that's a fact 
 
The you left me DAA, 
said you felt trapped DAA 
D                                A
Well, some things you can't explain away 
Bm                                D 
But the heartache's with me till this day 


You didn't stand by me DAA

No, not at all DAA
 
You didn't stand by me DAA

No way DAA


All the times DAA
when we were close DAA
I'll remember DAA
these things the most DAA
 D strum                        B strum
I see all my dreams come tumblin' down 
I can't be happy DAA
without you around DAA
D strum                        A strum
So alone, I keep the wolves at bay 
Bm strum                          D
And there's only one thing I can say 
                

[Chorus] same cords as in the last chorus
You didn't stand by me DAA

No, not at all DAA
 
You didn't stand by me DAA

No way DAA

[Bridge:] 
         D       A     B
You must expla-a-a-ain why this must be 
        D      A     B
Did you li-i-i-ie when you spoke to me? 
 
Did you stand be me?DAA 
No, not at all DAA


Now I got a job,
 but it don't pay DAA
I need new clothes,DAA
 I need somewhere to stay DAA
    D strum                         B
But without all of these things I can do 
But without your love,DAA
 I won't make it through DAA
D struM                              A strum
But you don't understand my point of view 
Bm strum                      D
I suppose there nothing I can do

[ Tab from: http://www.guitartabs.cc/tabs/c/clash/train_in_vain_live_tab.html ]

Chorus
You didn't stand by me DAA

No, not at all DAA
 
You didn't stand by me DAA

No way DAA


solo

|--------------|-----------|-------------|--------------|
|--------------|-----------|-------------|--------------|
|--------------|-----------|-------------|--------------|
|----7-----7---|-7-----7---|--7-----7----|--7----7------|
|--------------|-----------|-------------|--------------|
|--5---5-5---5-|5--5-5---5-|5---5-5----5-|5---5-5---5---|

|----------------|--------------|---------------|----------------|
|----------------|--------------|---------------|----------------|
|----------------|--------------|---------------|----------------|
|--7-----7-----7-|-7------7-9---|-7-----7-----7-|7------7-9------|
|----------------|--------------|-----------0---|----------------|
|-----5-5----5---|----5-5-----5-|----5-5--5-----|---5-5-----5----|

|---------------|----5s7v-----5s9v-|
|---------------|5-7-------5-7-----|
|---------------|------------------|
|---7-----7---7-|------------------|
|---------------|------------------|
|-----5-5---5---|------------------|

         D       A     Bm
You must expla-a-a-ain why this must be 
        D      A     Bm
Did you li-i-i-ie when you spoke to me? 
 
Did you stand be me?DAA 
No, not at all DAA

solo2
|----7s9v--9p7---7p5------7-9s12--12p10p9-10-9-9-10-9----------------=|
|-2s7----------9-----7s9-7----------------------------10-10-----------|
|---------------------------------------------------------------------|
|---------------------------------------------------------------------|
|---------------------------------------------------------------------|
|---------------------------------------------------------------------|

|--------------------------7s9-----9s12---10p9----10p9----12p10p9-----|
|-----------------------5-7----7-9-------------10------10-------------|
|---------------------------------------------------------------------|
|--7-----7---7---7----7-----------------------------------------------|
|---------------------------------------------------------------------|
|-----5-5---5------5-5------------------------------------------------|

|12p10p9-----|
|-------10-10|
|------------|
|------------|
|------------|
|------------|


DAA,DAA,DAA

Thats it
i hope its right and if not it can give ya sum kool licks to play around with when ur jamming to the song!
l8r
Comments