Clash - Tommy Gun Chords & Tabs

 

Tommy Gun Chords & Tabs

Clash Chords & Tabs

Version: 2 Type: Tab

Tommy Gun Tab

   
Intro


1st guitar (Joe)

E-0-0~-|
B-0-0~-|
G-1-1~-|
D-2-2~-|
A-2-2~-|
E-0-0~-|


2nd guitar (Mick)

E------|
B------|
G-9-9~-|
D-9-9~-|
A-7-7~-|
E------|


Verse 1


1st guitar (joe)

E-----------------------------------------------------| x2
B-----------------------------------------------------|
G-----------------------------------------------------|
D-77777777-1010101010101010-1212121212121212-77777777-|
A-77777777-1010101010101010-1212121212121212-77777777-|
E-55555555- 9 9 9 9 9 9 9 9-1010101010101010-55555555-|

then

E---------------------------| x3
B---------------------------|
G---------------------------|
D-1212121212121212-77777777-|
A-1212121212121212-77777777-|
E-1010101010101010-55555555-|

then

E-0-0~-|
B-0-0~-|
G-1-1~-|
D-2-2~-|
A-2-2~-|
E-0-0~-|


2nd guitar (Mick)

E----------------------|
B-----------5/9~-10~---|
G----------------------|
D-2/6~-7~--------------|
A----------------------|
E----------------------|

then

E------|
B------|
G-9-9~-|
D-9-9~-|
A-7-7~-|
E------|


Verse 2


1st guitar (Joe)

palm muted

E-----------------------------------------------------| x2
B-----------------------------------------------------|
G-----------------------------------------------------|
D-77777777-1010101010101010-1212121212121212-77777777-|
A-77777777-1010101010101010-1212121212121212-77777777-|
E-55555555- 9 9 9 9 9 9 9 9-1010101010101010-55555555-|

then, now distorted

E---------------------------| x3
B---------------------------|
G---------------------------|
D-1212121212121212-77777777-|
A-1212121212121212-77777777-|
E-1010101010101010-55555555-|

then

E-0-0~-|
B-0-0~-|
G-1-1~-|
D-2-2~-|
A-2-2~-|
E-0-0~-|


2nd guitar (Mick)
[ Tab from: http://www.guitartabs.cc/tabs/c/clash/tommy_gun_tab_ver_2.html ]
E-12-12-12-12-12-12-12-12-12-12-12-12-12-12-12-12-12-12-12-12-9-|
B---------------------------------------------------------------|
G---------------------------------------------------------------|
D---------------------------------------------------------------|
A---------------------------------------------------------------|
E---------------------------------------------------------------|

then

E-12-9-------12-9---------|
B------10~-------10~--/5~-|
G-------------------------|
D-------------------------|
A-------------------------|
E-------------------------|

then

E------|
B------|
G-9-9~-|
D-9-9~-|
A-7-7~-|
E------|


Verse 3


1st guitar (Joe)

same as verse 1


2nd guitar (Mick)

E-------------------------------------------------|
B-------------------------------17-14-------------|
G-14~-/6~~~-/7~-/9~-/2~---6-4-6/18----14~-9p11h9~-|
D-------------------------------------------------|
A-------------------------------------------------|
E-------------------------------------------------|

E------------------------------|
B----------------19------------|
G-17~~~~-17~~-18- --18~-17~~~~-|
D------------------------------|
A------------------------------|
E------------------------------|


E------|
B------|
G-9-9~-|
D-9-9~-|
A-7-7~-|
E------|


Verse 4


same as verse 2


Verse 5


1st guitar (Joe)

same as verse 1


2nd guitar (Mick)

E-----------------------------------------------------------|
B-------------5~-/9~-10~------------------------------------|
G-----------------------------------------------------------|
D-2~-/6~-7~----------------9~-11-11/7/11~-11-11/7/5~-11-11/-|
A-----------------------------------------------------------|
E-----------------------------------------------------------|

E------|
B------|
G-9-9~-|
D-9-9~-|
A-7-7~-|
E------|


Verse 6


1st guitar (Joe)

E---------------------------------------------|
B---------------------------------------------|
G---------------------------------------------|
D-99999999-1414141414141414-77777777-99999999-|
A-99999999-1414141414141414-77777777-99999999-|
E-77777777-1212121212121212-55555555-77777777-|


2nd guitar (Mick)

E---------------------------------------------------------------|
B-12-12-12-12-12-12-12-12-12-12-12-12-12-12-12-12-12-12-12-12-9-|
G---------------------------------------------------------------|
D---------------------------------------------------------------|
A---------------------------------------------------------------|
E---------------------------------------------------------------|


Outro (both guitars)

E-----|
B-----|
G-4-4-|
D-4-4-|
A-2-2-|
E-----|