Clash - The Equaliser Chords & Tabs

 

The Equaliser Chords & Tabs

Clash Chords & Tabs

Version: 1 Type: Bass Tab

The Equaliser Bass Tab

Band: The Clash
Song: The Equaliser
Tabbed by: Daniel Rodriguez
E-mail: label1987@hotmail.com

Riff 1
G|-----------------------------------------------|
D|-----------------------------------------------|
A|------------3-------3--5------3--3-4-3-4-5-----|
E|------5-5-5---5-5-5-----5-5-5------------------|

Riff 2
G|-----------------------------------------------|
D|-----------------------------------------------|
A|-3--2-3-2-3-4--2-3-2-3-5--2-3-2-3--4-3-4-3-2-3-|
E|-----------------------------------------------|
[ Tab from: http://www.guitartabs.cc/tabs/c/clash/the_equaliser_btab.html ]
Riff 3
G|-----------------------------------------------|
D|-----------------------------------------------|
A|--3--2-3-2-3--4-4-3-3-4--2-3-2-3--4-3-4-3-2-3--|
E|-----------------------------------------------|

Riff 4
G|----------------------|
D|----------------------|
A|---------3--------3---|
E|---5-5-5----5-5-5-----|

ORDER
riff 1 (6x)
riff 2 (2x)
riff 1 (2x)
riff 3 (2x)
riff 1 (1x)
riff 4 (1x)
riff 1 (4x)
riff 2 (2x)
riff 1 (4x)
riff 2 (2x)
riff 1 (4x)
riff 2 (2x)
riff 1 (5x)
riff 2 (2x)
riff 1 (6x)
riff 3 (2x)
riff 1 (3x)
if you have any comments or corrections e-mail me.enjoy!
Check out other tabs by me:
The Clash "I'm So Bored With The U.S.A."
The Clash "Police and Thieves"
The Clash "Rebel Waltz"
Black Flag "Paralize"
Patty Smith "Till Victory"
Gang of Four "Love Like Anthrax"