Clash - The Crooked Beat Chords & Tabs

 

The Crooked Beat Chords & Tabs

Clash Chords & Tabs

Version: 3 Type: Bass Tab 0 ratings
1 star 2 stars 3 stars 4 stars 5 stars
comments

The Crooked Beat Bass Tab

Band: The Clash
Song: The Crooked Beat
Tabbed by: Daniel Rodriguez
E-mail: label1987@hotmail.com

Riff 1
G|------------------------|
D|------------------------|
A|-----------8-9-8-9------|
E|--4-5-7-9---------------|

Riff 2
G|------------------------|
D|------------------------|
A|------------------------|
E|--11-11-9-8--9-10-9-10--|

Riff 3
G|------------------------|
D|------------------------|
A|-------------8-9-8-9----|
E|--4-4-5-7-9-------------|

Riff 4
G|------------------------|
D|------------------------|
A|---------9--8-9-8-9-----|
E|--11-9-8----------------|

Riff 5
G|------------------------|
D|------------------------|
A|------------------------|
E|--4~--------------------|
[ Tab from: http://www.guitartabs.cc/tabs/c/clash/the_crooked_beat_btab_ver_3.html ]
ORDER
Riff 1 (3x)
Riff 2 (2x)
Riff 3 (4x)
Riff 4 (2x)
Riff 3 (4x)
Riff 2 (2x)
Riff 3 (4x)
Riff 4 (2x)
Riff 3 (4x)
Riff 2 (2x)
Riff 3 (4x)
Riff 4 (2x)
Riff 3 (4x)
Riff 2 (2x)
Riff 3 (4x)
Riff 4 (2x)
Riff 3 (2x)
Riff 1 (3x)
Riff 2 (2x)
Riff 3 (4x)
Riff 4 (2x)
Riff 3 (4x)
Riff 2 (2x)
Riff 3 (4x)
Riff 4 (2x)
Riff 3 (4x)
Riff 2 (2x)
Riff 3 (4x)
Riff 4 (2x)
Riff 3 (4x)
Riff 2 (2x)
Riff 3 (4x)
Riff 4 (2x)
Riff 3 (2x)
Riff 5 (1x)

It's a long, but good song!
if you have any comments or corrections e-mail me.enjoy!
Check out other tabs by me:
The Clash "I'm So Bored With The U.S.A."
The Clash "Police And Thieves"
The Clash "Rebel Waltz"
The Clash "The Equaliser"
Black Flag "Paralize"
Patty Smith "Till Victory"
Gang Of Four "Love Like Anthrax"
Comments