Clash - The Crooked Beat Chords & Tabs

 

The Crooked Beat Chords & Tabs

Clash Chords & Tabs

Version: 2 Type: Bass Tab 0 ratings
1 star 2 stars 3 stars 4 stars 5 stars
comments

The Crooked Beat Bass Tab

The Crooked Beat Bass Tablature
by the clash

Transcribed by: Kory (airsick@hotmail.com)
[ Tab from: http://www.guitartabs.cc/tabs/c/clash/the_crooked_beat_btab_ver_2.html ]
INTRO/VERSE
G:-----------------------------------------------------------
D:-----------------------------------------------------------
A:---2-5-7----5757-------------------------------------------
E:-3---------------------------------------------------------
(lots)
Then...
G:-----------------------------------------------------------
D:-----------------------------------------------------------
A:--55-------------------------------------------------------
E:-----5-7--5757---------------------------------------------
(2x)
"Seeking out a rhythm..."
G:-----------------------------------------------------------
D:---2-5-7---5757--------------------------------------------
A:-3---------------------------------------------------------
E:-----------------------------------------------------------
(2x)

Comments