Clash - The Crooked Beat Chords & Tabs

 

The Crooked Beat Chords & Tabs

Clash Chords & Tabs

Version: 1 Type: Bass Tab 0 ratings
1 star 2 stars 3 stars 4 stars 5 stars
comments

The Crooked Beat Bass Tab

   
                           THE CROOKED BEAT (Bassline)
                            As recorded by The Clash
                        (From the 1980 Album SANDINISTA!)

[ Tab from: http://www.guitartabs.cc/tabs/c/clash/the_crooked_beat_btab.html ]
 4/4
  Gtr I
  E E E E E E E E E E E E E E E E
|------------------------------------|
|-----0-2-3-2-0-------0-2-3-2-0------|
|---2-----------2---2-----------2----|
|-3---------------3------------------|
|
| E E E E E E E E E E E E E E E E
|-----0-2-3-2-0-------0-2-3-2-0------|
|---2-----------2---2-----------2----|
|-3---------------3------------------|
|------------------------------------|



***************************************************************************************
* Generated using Power Tab Editor by Brad Larsen - http://powertab.guitarnetwork.org *
***************************************************************************************

Comments