Clash - Stay Free Chords & Tabs

 

Stay Free Chords & Tabs

Clash Chords & Tabs

Version: 1 Type: Bass Tab 0 ratings
1 star 2 stars 3 stars 4 stars 5 stars
comments

Stay Free Bass Tab

Stay Free Bass Tablature
by the clash

Transcribed by: Alejandro González (ang1@usa.net)

Intro
G---||---------------------------------------------|
D---||*--------------------------------------------|
A---||*--------------------------------------------|
E---||---3-3---3-3---3-3---3-3---3-3---3-3---3-3---|

We met when we were at school...
G-------------------------------|---------------------------|-------------------
D-------------5---4---2-0-------|---------------------------|-------------------
A-----2-3-4-5---3---2-----0-2-0-|-0-2-0---2-------2-0-3-2-3-|-------------------
E---3---------------------------|-------3---3-2-0-----------|-------------------
[ Tab from: http://www.guitartabs.cc/tabs/c/clash/stay_free_btab.html ]
`Cos years have passed and...                Go easy... 
G-------------1-2-4---------0-0-------------|-------------------|---------------
D-----1-2-4-2-------3-2-0-------3-3-2-2-0-0-|-----5-7-5---------|---------------
A---2---------------------3-----------------|-3/7-------7-5-----|---------------
E-------------------------------------------|---------------7-5-|---------------

Stay free...                                                                              
G---0-0-0-0-0-0-0-------|----------------------------||-------------------------
D-----------------0-2-0-|---------5-------4-------2-*||-------------------------
A-----------------------|-------7-------5-------4---*||-------------------------
E-----------------------|-3-8-8-----7-7-----5-5------||-------------------------
                                                                       

Comments