Clash - Should I Stay Or Should I Go Chords & Tabs

 

Should I Stay Or Should I Go Chords & Tabs

Clash Chords & Tabs

Version: 3 Type: Tab 0 ratings
1 star 2 stars 3 stars 4 stars 5 stars
comments

Should I Stay Or Should I Go Tab

   
Should I stay or should I go
Clash
Tabbed by Jjmig (spam)
sfichtner@trevornet.org

Chords:
              D         G         A        F
e|-----2-----3-----0----1----------------------------------------------|
B|-----3-----3-----2----1----------------------------------------------|
G|-----2-----0-----2----2----------------------------------------------|
D|-----------0-----2----3----------------------------------------------|
A|-----------2-----0---------------------------------------------------|
E|-----------3---------------------------------------------------------|

Now when you do the intro and the verses you strum it like this
-= chord changes (Up Down Up- Down Up Down Up- Down )

X=palm mute
H=hammer
Intro:
e|--2-2-2---3-3-3-3--2------x-x-x--------------------------------------|
B|--3-3-3---3-3-3-3--3------x-x-x--------------------------------------|
G|--2-2-2---0-0-0-0--2------x-x-x--------------------------------------|
D|----------0-0-0-0---------x-x-x--------------------------------------|
A|----------2-2-2-2---------x-x-x--------------------------------------|
E|----------3-2-2-2---------x-x-x--------------------------------------|
Then
e|--2-2-2---3-3-3-3--2-------5h8----------------------------------------|
B|--3-3-3---3-3-3-3--3--------------------------------------------------|
G|--2-2-2---0-0-0-0--2--------------------------------------------------|
D|----------0-0-0-0-----------------------------------------------------|
A|----------2-2-2-2-----------------------------------------------------|
E|----------3-2-2-2-----------------------------------------------------|
Then
e|--2-2-2---3-3-3-3--2-----------------------------------------------|
B|--3-3-3---3-3-3-3--3-----------------------------------------------|
G|--2-2-2---0-0-0-0--2-----------------------------------------------|
D|----------0-0-0-0--------------------------------------------------|
A|----------2-2-2-2--------------------------------------------------|
E|----------3-2-2-2--------------------------------------------------|
WOO!
e|--2-2-2---3-3-3-3--2-----------------------------------------------|
B|--3-3-3---3-3-3-3--3-----------------------------------------------|
G|--2-2-2---0-0-0-0--2-----------------------------------------------|
D|----------0-0-0-0--------------------------------------------------|
A|----------2-2-2-2--------------------------------------------------|
E|----------3-2-2-2--------------------------------------------------|

 Now the verse
Same as the intro but some differences
Just remember that you play the chords after the words then words the chords u get the picture

DARLING YOU GOT TO LET ME NOW
e|--2-2-2---3-3-3-3--2-----------------------------------------------|
B|--3-3-3---3-3-3-3--3-----------------------------------------------|
G|--2-2-2---0-0-0-0--2-----------------------------------------------|
D|----------0-0-0-0--------------------------------------------------|
A|----------2-2-2-2--------------------------------------------------|
E|----------3-2-2-2--------------------------------------------------|
SHOULD I STAY OR SHOULD I GO
e|--2-2-2---3-3-3-3--2-----------------------------------------------|
B|--3-3-3---3-3-3-3--3-----------------------------------------------|
G|--2-2-2---0-0-0-0--2-----------------------------------------------|
D|----------0-0-0-0--------------------------------------------------|
A|----------2-2-2-2--------------------------------------------------|
E|----------3-2-2-2--------------------------------------------------|
IF YOU SAY THAT YOU ARE MINE!
e|-3--1-1-1-1--3--------------------------------------------------------|
B|-3--1-1-1-1--3--------------------------------------------------------|
G|-0--2-2-2-2--0--------------------------------------------------------|
D|-0--3-3-3-3--0--------------------------------------------------------|
A|-2-----------2--------------------------------------------------------|
E|-3-----------3--------------------------------------------------------|
I'LL BE HERE TO THE END OF TIME
e|--2-2-2---3-3-3-3--2-----------------------------------------------|
B|--3-3-3---3-3-3-3--3-----------------------------------------------|
G|--2-2-2---0-0-0-0--2-----------------------------------------------|
D|----------0-0-0-0--------------------------------------------------|
A|----------2-2-2-2--------------------------------------------------|
E|----------3-2-2-2--------------------------------------------------|
SO YOU GOT TO LET ME KNOW
E|---------------------------------------------------------------------|
B|---2-2-2-2-2-2-2-2---------------------------------------------------|
G|---2-2-2-2-2-2-2-2---------------------------------------------------|
D|---2-2-2-2-2-2-2-2---------------------------------------------------|
A|---------------------------------------------------------------------|
E|---------------------------------------------------------------------|
SHOULD I STAY OR SHOULD I GO
e|--2-2-2---3-3-3-3--2-----------------------------------------------|
B|--3-3-3---3-3-3-3--3-----------------------------------------------|
G|--2-2-2---0-0-0-0--2-----------------------------------------------|
D|----------0-0-0-0--------------------------------------------------|
A|----------2-2-2-2--------------------------------------------------|
E|----------3-2-2-2--------------------------------------------------|
[ Tab from: http://www.guitartabs.cc/tabs/c/clash/should_i_stay_or_should_i_go_tab_ver_3.html ]
Next
ITS ALWAYS TEASE TEASE TEASE
e|--2-2-2---3-3-3-3--2-----------------------------------------------|
B|--3-3-3---3-3-3-3--3-----------------------------------------------|
G|--2-2-2---0-0-0-0--2-----------------------------------------------|
D|----------0-0-0-0--------------------------------------------------|
A|----------2-2-2-2--------------------------------------------------|
E|----------3-2-2-2--------------------------------------------------|
YOU'RE HAPPY WHEN I'M ON MY KNEE'S
e|--2-2-2---3-3-3-3--2-----------------------------------------------|
B|--3-3-3---3-3-3-3--3-----------------------------------------------|
G|--2-2-2---0-0-0-0--2-----------------------------------------------|
D|----------0-0-0-0--------------------------------------------------|
A|----------2-2-2-2--------------------------------------------------|
E|----------3-2-2-2--------------------------------------------------|
ONE DAY ITS FINE THE NEXT ITS BLACK
e|-3--1-1-1-1--3--------------------------------------------------------|
B|-3--1-1-1-1--3--------------------------------------------------------|
G|-0--2-2-2-2--0--------------------------------------------------------|
D|-0--3-3-3-3--0--------------------------------------------------------|
A|-2-----------2--------------------------------------------------------|
E|-3-----------3--------------------------------------------------------|
SO IF YOU WANT ME OF THE YOUR BACK
e|--2-2-2---3-3-3-3--2-----------------------------------------------|
B|--3-3-3---3-3-3-3--3-----------------------------------------------|
G|--2-2-2---0-0-0-0--2-----------------------------------------------|
D|----------0-0-0-0--------------------------------------------------|
A|----------2-2-2-2--------------------------------------------------|
E|----------3-2-2-2--------------------------------------------------|
WELL COME AND LET ME KNOW
E|---------------------------------------------------------------------|
B|---2-2-2-2-2-2-2-2---------------------------------------------------|
G|---2-2-2-2-2-2-2-2---------------------------------------------------|
D|---2-2-2-2-2-2-2-2---------------------------------------------------|
A|---------------------------------------------------------------------|
E|---------------------------------------------------------------------|
SHOULD I STAY OR SHOULD I GO
e|--2-2-2---3-3-3-3--2-----------------------------------------------|
B|--3-3-3---3-3-3-3--3-----------------------------------------------|
G|--2-2-2---0-0-0-0--2-----------------------------------------------|
D|----------0-0-0-0--------------------------------------------------|
A|----------2-2-2-2--------------------------------------------------|
E|----------3-2-2-2--------------------------------------------------|


Now everything gets faster you don't do the strumming
Play the chords where they are under the words
SHOULD I STAY OR SHOULD I GO NOW
e|----------------------------2-2-2-2--3-3-3-3--2-2-2-2----------------|
B|----------------------------3-3-3-3--3-3-3-3--3-3-3-3----------------|
G|----------------------------2-2-2-2--0-0-0-0--2-2-2-2----------------|
D|-------------------------------------0-0-0-0-------------------------|
A|-------------------------------------2-2-2-2-------------------------|
E|-------------------------------------3-2-2-2-------------------------|
SHOULD I STAY OR SHOULD I GO NOW
e|--------2-2-2-----------------3-3-3-3--2-2-2-2----------------------|
B|--------3-3-3-----------------3-3-3-3--3-3-3-3----------------------|
G|--------2-2-2-----------------0-0-0-0--2-2-2-2----------------------|
D|------------------------------0-0-0-0-------------------------------|
A|------------------------------2-2-2-2-------------------------------|
E|------------------------------3-2-2-2-------------------------------|
IF I GO THERE WILL BE TROUBLE
E|--2-2-2--------------3-3-3---1-1-1--3-3-3----------------------------|
B|--3-3-3--------------0-0-0---1-1-1--0-0-0----------------------------|
G|--2-2-2--------------0-0-0---2-2-2--0-0-0----------------------------|
D|---------------------0-0-0---3-3-3--0-0-0----------------------------|
A|---------------------2-2-2----------2-2-2----------------------------|
E|---------------------3-3-3----------3-3-3----------------------------|
AND IF I STAY IT WILL BE DOUBLE
e|------3-3-3------------2-2-2---3-3-3---2-2-2-------------------------|
B|------0-0-0------------3-3-3---0-0-0---3-3-3-------------------------|
G|------0-0-0------------2-2-2---0-0-0---2-2-2-------------------------|
D|------0-0-0--------------------0-0-0---------------------------------|
A|------2-2-2--------------------2-2-2---------------------------------|
E|------3-3-3--------------------3-3-3---------------------------------|
SO COME ON AND LET ME KNOW
e|-------2-2-2---------------------------------------------------------|
B|-------3-3-3-----------2-2-2-2-2-2-----------------------------------|
G|-------2-2-2-----------2-2-2-2-2-2-----------------------------------|
D|-----------------------2-2-2-2-2-2-----------------------------------|
A|---------------------------------------------------------------------|
E|---------------------------------------------------------------------|
Ok so right after that you do those A'S you do this. Strum d or u above the chord

          D       D U      DU D  U    D
e|--------2-2---3-3-3-3---2--------------------------------------------|
B|---2----3-3---0-0-0-0---3--------------------------------------------|
G|---2----2-2---0-0-0-0---2--------------------------------------------|
D|---2----------0-0-0-0------------------------------------------------|
A|--------------2-2-2-2------------------------------------------------|
E|--------------3-3-3-3------------------------------------------------|
Trust me that's right, you can figure the rest off of that
Bo ya!
Comments