Clash - Safe European Home Chords & Tabs

 

Safe European Home Chords & Tabs

Clash Chords & Tabs

Version: 1 Type: Bass Tab 0 ratings
1 star 2 stars 3 stars 4 stars 5 stars
comments

Safe European Home Bass Tab

Safe European Home Bass Tablature
by the clash

Transcribed by:
Daniel Ray (rayi@mail.clarke.public.lib.ga.us)

Tune down 1/2 step

Verses

G --------------------------------------
D -3----------------0-3-----2-5---------
A ----------1-3--11------33-------------
E ---1-1111-----------------------------

Chorus
[ Tab from: http://www.guitartabs.cc/tabs/c/clash/safe_european_home_btab.html ]
G --------------------------------------
D --------------------------------------
A -----5-5-----------5-5--------3333----
E -3-3-----1-1-2--3-3-----111111--------

Bridge

G --------------------------------------
D --------------------------------------
A -----------0-0-1-1----------313101----
E -1-----------------1-1-3-3---------1--

Outro

G --------------------
D --------------------
A ------00-011-111--1-
E -11-1---------------

Order: 
Verse  x6
Chorus x1 
Verse  x4
Chorus x1 
Bridge
Verse  x4
Chorus x1
Outro  xinfinite

Comments