Clash - Rudie Cant Fail Chords & Tabs

 

Rudie Cant Fail Chords & Tabs

Clash Chords & Tabs

Version: 1 Type: Tab 0 ratings
1 star 2 stars 3 stars 4 stars 5 stars
comments

Rudie Cant Fail Tab

   
Artist-The Clash
Guitarists-jo strummer,mick jones
album-London Calling
Tabbed by-Smellslikefeet1

this isnt completly correct but its a start
if theres any mistakes feel free to email me
black_blizzord@msn.com

  A    D     G     E7
|-0-| |-2-| |-3-| |---| |---|
|-2-| |-3-| |-0-| |---| |---|
|-2-| |-2-| |-0-| |---| |-4-|
|-2-| |-0-| |-0-| |-4-| |-4-|
|---| |---| |-2-| |-4-| |-2-|
|---| |---| |-3-| |-2-| |---|
[ Tab from: http://www.guitartabs.cc/tabs/c/clash/rudie_cant_fail_tab.html ]
verse
|--0-0-0--2-0---|-0-0-0-------|-0-0-0--0----|-0-0-0-2-0-----|
|--2-2-2--3-2---|-2-2-2-------|-2-2-2--2----|-2-2-2-3-2-----|
|--2-2-2--2-2-x2|-2-2-2-------|-2-2-2--2----|-2-2-2-2-2-----|
|--2-2-2--0-2---|-2-2-2--4-4--|-2-2-2--2----|-2-2-2-0-2-----|
|---------------|--------4-4--|-------------|---------------|
|---------------|--------2-2--|-------------|---------------|

he plays this with the cords
|---------------------------------|
|---------------------------------|
|---------------------------------| repeat as heard
|-----4-------------4-------------|
|--4-5---4-7-4---4-5--------------|
|-5-----5------5-------2-2--------|

chorus
went to the market...
|-0-0-0--------------------|
|-2-2-2--------------------|
|-2-2-2-4-4-4--------------|
|-2-2-2-4-4-4-4-4-4-4-4-4--|
|-------2-2-2-4-4-4-2-4-4--|x3
|-------------2-2-2-2-2-2--|

rudy cant fail...
|-0---0-0--|
|-2---2-2--|
|-2-4-2-2--|
|-2-4-2-2--|
|---2------|
|----------|

verse again
chorusx2

ruuuuuudddy caaant telll
|-2---0-0-------|
|-3---2-2-------|
|-2-4-2-2-------|
|-0-4-2-2-------|
|---2-----------|
|---------------|

THERES AKK THE PARTS JUST PUT EM TOGETHER
enjoi
Comments